ISO-10303-21;
HEADER;
FILE_DESCRIPTION (( 'STEP AP203' ),
    '1' );
FILE_NAME ('61841.step',
    '2021-11-01T12:23:45',
    ( '' ),
    ( '' ),
    'SwSTEP 2.0',
    'SolidWorks 2019',
    '' );
FILE_SCHEMA (( 'CONFIG_CONTROL_DESIGN' ));
ENDSEC;

DATA;
#1 = CARTESIAN_POINT ( 'NONE',  ( 8.091990142142893265E-15, -2.825763869305590380E-16, 2.317638090205027979 ) ) ;
#2 = SHAPE_DEFINITION_REPRESENTATION ( #66, #225 ) ;
#3 = CARTESIAN_POINT ( 'NONE',  ( 6.284666409917638462E-15, -2.602085213965217051E-16, 1.799999999999999600 ) ) ;
#4 = DIRECTION ( 'NONE',  ( -3.491481338843133355E-15, 1.224646799147353207E-16, -1.000000000000000000 ) ) ;
#5 = PERSON_AND_ORGANIZATION ( #198, #29 ) ;
#6 = DIRECTION ( 'NONE',  ( 4.275831445896958607E-31, 1.000000000000000000, 1.224646799147352961E-16 ) ) ;
#7 = CLOSED_SHELL ( 'NONE', ( #106, #74, #108 ) ) ;
#8 = CC_DESIGN_PERSON_AND_ORGANIZATION_ASSIGNMENT ( #90, #241, ( #160 ) ) ;
#9 = EDGE_CURVE ( 'NONE', #110, #110, #72, .T. ) ;
#10 = FACE_OUTER_BOUND ( 'NONE', #93, .T. ) ;
#11 = DIRECTION ( 'NONE',  ( 3.491481338843133355E-15, -1.219242935835426903E-16, 1.000000000000000000 ) ) ;
#12 = CC_DESIGN_PERSON_AND_ORGANIZATION_ASSIGNMENT ( #130, #137, ( #46 ) ) ;
#13 = EDGE_CURVE ( 'NONE', #206, #206, #159, .T. ) ;
#14 =( LENGTH_UNIT ( ) NAMED_UNIT ( * ) SI_UNIT ( .MILLI., .METRE. ) );
#15 = LOCAL_TIME ( 13, 23, 45.00000000000000000, #166 ) ;
#16 = APPROVAL_STATUS ( 'not_yet_approved' ) ;
#17 = APPROVAL ( #16, 'UNSPECIFIED' ) ;
#18 = AXIS2_PLACEMENT_3D ( 'NONE', #234, #79, #230 ) ;
#19 = DIRECTION ( 'NONE',  ( 3.491481338843133355E-15, -1.224646799147353207E-16, 1.000000000000000000 ) ) ;
#20 = AXIS2_PLACEMENT_3D ( 'NONE', #158, #99, #233 ) ;
#21 = CALENDAR_DATE ( 2021, 1, 11 ) ;
#22 = CC_DESIGN_DATE_AND_TIME_ASSIGNMENT ( #172, #187, ( #64 ) ) ;
#23 = EDGE_LOOP ( 'NONE', ( #231 ) ) ;
#24 = MANIFOLD_SOLID_BREP ( 'Corps-Déplacer/Copier1[2]', #7 ) ;
#25 = DESIGN_CONTEXT ( 'detailed design', #180, 'design' ) ;
#26 = EDGE_LOOP ( 'NONE', ( #169 ) ) ;
#27 = ADVANCED_FACE ( 'NONE', ( #119, #94 ), #78, .T. ) ;
#28 = DIRECTION ( 'NONE',  ( 0.0000000000000000000, 1.000000000000000000, 0.0000000000000000000 ) ) ;
#29 = ORGANIZATION ( 'UNSPECIFIED', 'UNSPECIFIED', '' ) ;
#30 = DIRECTION ( 'NONE',  ( -3.491481338843133355E-15, 1.224646799147353207E-16, -1.000000000000000000 ) ) ;
#31 = DIRECTION ( 'NONE',  ( 0.0000000000000000000, 1.000000000000000000, 0.0000000000000000000 ) ) ;
#32 = FACE_OUTER_BOUND ( 'NONE', #176, .T. ) ;
#33 = DIRECTION ( 'NONE',  ( -3.491481338843133355E-15, 1.224646799147353207E-16, -1.000000000000000000 ) ) ;
#34 = AXIS2_PLACEMENT_3D ( 'NONE', #214, #30, #6 ) ;
#35 = LOCAL_TIME ( 13, 23, 45.00000000000000000, #151 ) ;
#36 = VERTEX_POINT ( 'NONE', #167 ) ;
#37 = DIRECTION ( 'NONE',  ( 3.491481338843133355E-15, -1.219242935835426903E-16, 1.000000000000000000 ) ) ;
#38 = CARTESIAN_POINT ( 'NONE',  ( 8.091990142142893265E-15, -0.3681483474218600338, 2.317638090205027979 ) ) ;
#39 = PERSON_AND_ORGANIZATION_ROLE ( 'design_supplier' ) ;
#40 = PLANE ( 'NONE',  #149 ) ;
#41 = APPROVAL_ROLE ( '' ) ;
#42 = DIRECTION ( 'NONE',  ( -4.275831445896958607E-31, -1.000000000000000000, -1.224646799147353207E-16 ) ) ;
#43 = EDGE_LOOP ( 'NONE', ( #138 ) ) ;
#44 = FACE_OUTER_BOUND ( 'NONE', #192, .T. ) ;
#45 = EDGE_LOOP ( 'NONE', ( #194 ) ) ;
#46 = PRODUCT_DEFINITION_FORMATION_WITH_SPECIFIED_SOURCE ( 'ANY', '', #100, .NOT_KNOWN. ) ;
#47 = EDGE_CURVE ( 'NONE', #75, #75, #236, .T. ) ;
#48 = TOROIDAL_SURFACE ( 'NONE', #235, 2.299999999999999822, 2.000000000000000000 ) ;
#49 = CARTESIAN_POINT ( 'NONE',  ( 3.587083953752586064E-14, -1.252627852311700081E-15, 10.27381677182650854 ) ) ;
#50 = DIRECTION ( 'NONE',  ( -3.491481338843133355E-15, 1.219242935835426903E-16, -1.000000000000000000 ) ) ;
#51 = CARTESIAN_POINT ( 'NONE',  ( 2.284045378728432653E-14, -7.976001939809624475E-16, 6.541765964257531429 ) ) ;
#52 = AXIS2_PLACEMENT_3D ( 'NONE', #237, #178, #217 ) ;
#53 = CIRCLE ( 'NONE', #162, 1.499999999999996669 ) ;
#54 = PERSON_AND_ORGANIZATION ( #198, #29 ) ;
#55 = EDGE_LOOP ( 'NONE', ( #62 ) ) ;
#56 = CC_DESIGN_APPROVAL ( #153, ( #64 ) ) ;
#57 = EDGE_LOOP ( 'NONE', ( #117 ) ) ;
#58 = APPROVAL_STATUS ( 'not_yet_approved' ) ;
#59 = ORIENTED_EDGE ( 'NONE', *, *, #157, .F. ) ;
#60 = APPROVAL_PERSON_ORGANIZATION ( #125, #195, #116 ) ;
#61 = DIRECTION ( 'NONE',  ( 3.491481338843133355E-15, -1.224646799147353207E-16, 1.000000000000000000 ) ) ;
#62 = ORIENTED_EDGE ( 'NONE', *, *, #13, .T. ) ;
#63 = FACE_OUTER_BOUND ( 'NONE', #183, .T. ) ;
#64 = SECURITY_CLASSIFICATION ( '', '', #77 ) ;
#65 = AXIS2_PLACEMENT_3D ( 'NONE', #49, #196, #218 ) ;
#66 = PRODUCT_DEFINITION_SHAPE ( 'NONE', 'NONE',  #160 ) ;
#67 = CARTESIAN_POINT ( 'NONE',  ( -2.479419726329981793E-30, 8.658259039415295857E-32, -7.101340335822938194E-16 ) ) ;
#68 = AXIS2_PLACEMENT_3D ( 'NONE', #88, #145, #182 ) ;
#69 = AXIS2_PLACEMENT_3D ( 'NONE', #185, #19, #42 ) ;
#70 = DIRECTION ( 'NONE',  ( 3.491481338843133355E-15, -1.219242935835426903E-16, 1.000000000000000000 ) ) ;
#71 = CARTESIAN_POINT ( 'NONE',  ( 1.326762908760390423E-13, 1.199999999999991962, 38.00000000000000000 ) ) ;
#72 = CIRCLE ( 'NONE', #101, 1.199999999999996403 ) ;
#73 = CALENDAR_DATE ( 2021, 1, 11 ) ;
#74 = ADVANCED_FACE ( 'NONE', ( #63, #76 ), #133, .T. ) ;
#75 = VERTEX_POINT ( 'NONE', #38 ) ;
#76 = FACE_OUTER_BOUND ( 'NONE', #80, .T. ) ;
#77 = SECURITY_CLASSIFICATION_LEVEL ( 'unclassified' ) ;
#78 = CYLINDRICAL_SURFACE ( 'NONE', #34, 1.499999999999994671 ) ;
#79 = DIRECTION ( 'NONE',  ( 3.491481338843133355E-15, -1.219242935835426903E-16, 1.000000000000000000 ) ) ;
#80 = EDGE_LOOP ( 'NONE', ( #59 ) ) ;
#81 = CIRCLE ( 'NONE', #221, 0.2999999999999999334 ) ;
#82 = LOCAL_TIME ( 13, 23, 45.00000000000000000, #91 ) ;
#83 = CC_DESIGN_PERSON_AND_ORGANIZATION_ASSIGNMENT ( #54, #126, ( #100 ) ) ;
#84 = PLANE ( 'NONE',  #201 ) ;
#85 = APPROVAL_PERSON_ORGANIZATION ( #105, #17, #226 ) ;
#86 = FACE_BOUND ( 'NONE', #43, .T. ) ;
#87 = ADVANCED_FACE ( 'NONE', ( #173 ), #209, .F. ) ;
#88 = CARTESIAN_POINT ( 'NONE',  ( 0.0000000000000000000, 0.0000000000000000000, 0.0000000000000000000 ) ) ;
#89 = VERTEX_POINT ( 'NONE', #128 ) ;
#90 = PERSON_AND_ORGANIZATION ( #198, #29 ) ;
#91 = COORDINATED_UNIVERSAL_TIME_OFFSET ( 1, 0, .AHEAD. ) ;
#92 = COORDINATED_UNIVERSAL_TIME_OFFSET ( 1, 0, .AHEAD. ) ;
#93 = EDGE_LOOP ( 'NONE', ( #127 ) ) ;
#94 = FACE_OUTER_BOUND ( 'NONE', #161, .T. ) ;
#95 = ORIENTED_EDGE ( 'NONE', *, *, #47, .T. ) ;
#96 = CC_DESIGN_PERSON_AND_ORGANIZATION_ASSIGNMENT ( #5, #174, ( #64 ) ) ;
#97 = DATE_AND_TIME ( #21, #144 ) ;
#98 = FACE_BOUND ( 'NONE', #213, .T. ) ;
#99 = DIRECTION ( 'NONE',  ( 3.491481338843133355E-15, -1.219242935835426903E-16, 1.000000000000000000 ) ) ;
#100 = PRODUCT ( '61841', '61841', '', ( #146 ) ) ;
#101 = AXIS2_PLACEMENT_3D ( 'NONE', #131, #4, #28 ) ;
#102 = DIRECTION ( 'NONE',  ( -4.275831445896958607E-31, -1.000000000000000000, -1.224646799147353207E-16 ) ) ;
#103 = FACE_OUTER_BOUND ( 'NONE', #55, .T. ) ;
#104 = MANIFOLD_SOLID_BREP ( 'Corps-Déplacer/Copier1[1]', #210 ) ;
#105 = PERSON_AND_ORGANIZATION ( #198, #29 ) ;
#106 = ADVANCED_FACE ( 'NONE', ( #44 ), #40, .T. ) ;
#107 = DIRECTION ( 'NONE',  ( -4.318720456597940409E-31, -1.000000000000000000, -1.219242935835426903E-16 ) ) ;
#108 = ADVANCED_FACE ( 'NONE', ( #118 ), #112, .F. ) ;
#109 = ORIENTED_EDGE ( 'NONE', *, *, #238, .T. ) ;
#110 = VERTEX_POINT ( 'NONE', #71 ) ;
#111 = CALENDAR_DATE ( 2021, 1, 11 ) ;
#112 = PLANE ( 'NONE',  #69 ) ;
#113 = CIRCLE ( 'NONE', #186, 1.499999999999994671 ) ;
#114 = CALENDAR_DATE ( 2021, 1, 11 ) ;
#115 = EDGE_LOOP ( 'NONE', ( #154 ) ) ;
#116 = APPROVAL_ROLE ( '' ) ;
#117 = ORIENTED_EDGE ( 'NONE', *, *, #13, .F. ) ;
#118 = FACE_OUTER_BOUND ( 'NONE', #115, .T. ) ;
#119 = FACE_OUTER_BOUND ( 'NONE', #26, .T. ) ;
#120 = APPLICATION_CONTEXT ( 'configuration controlled 3d designs of mechanical parts and assemblies' ) ;
#121 = CARTESIAN_POINT ( 'NONE',  ( 6.284666409917636095E-15, -4.336808689942017736E-16, 1.799999999999998934 ) ) ;
#122 = CARTESIAN_POINT ( 'NONE',  ( 1.316288464743861212E-13, -4.616918432785521081E-15, 37.69999999999999574 ) ) ;
#123 = VERTEX_POINT ( 'NONE', #208 ) ;
#124 = CONICAL_SURFACE ( 'NONE', #52, 1.199999999999996403, 0.7853981633974461696 ) ;
#125 = PERSON_AND_ORGANIZATION ( #198, #29 ) ;
#126 = PERSON_AND_ORGANIZATION_ROLE ( 'design_owner' ) ;
#127 = ORIENTED_EDGE ( 'NONE', *, *, #47, .F. ) ;
#128 = CARTESIAN_POINT ( 'NONE',  ( -2.607128645069553051E-30, -0.2999999999999999334, -7.467113216573566462E-16 ) ) ;
#129 =( GEOMETRIC_REPRESENTATION_CONTEXT ( 3 ) GLOBAL_UNCERTAINTY_ASSIGNED_CONTEXT ( ( #228 ) ) GLOBAL_UNIT_ASSIGNED_CONTEXT ( ( #14, #147, #184 ) ) REPRESENTATION_CONTEXT ( 'NONE', 'WORKASPACE' ) );
#130 = PERSON_AND_ORGANIZATION ( #198, #29 ) ;
#131 = CARTESIAN_POINT ( 'NONE',  ( 1.326762908760390423E-13, -4.653657836759941941E-15, 38.00000000000000000 ) ) ;
#132 = APPROVAL_DATE_TIME ( #227, #195 ) ;
#133 = CYLINDRICAL_SURFACE ( 'NONE', #20, 0.2999999999999998224 ) ;
#134 = ORIENTED_EDGE ( 'NONE', *, *, #189, .F. ) ;
#135 = PERSON_AND_ORGANIZATION ( #198, #29 ) ;
#136 = CARTESIAN_POINT ( 'NONE',  ( 1.326762908760390423E-13, 8.998558695971051224E-33, 38.00000000000000000 ) ) ;
#137 = PERSON_AND_ORGANIZATION_ROLE ( 'creator' ) ;
#138 = ORIENTED_EDGE ( 'NONE', *, *, #9, .T. ) ;
#139 = FACE_OUTER_BOUND ( 'NONE', #57, .T. ) ;
#140 = CC_DESIGN_APPROVAL ( #17, ( #160 ) ) ;
#141 = DIRECTION ( 'NONE',  ( 0.0000000000000000000, -1.000000000000000000, 0.0000000000000000000 ) ) ;
#142 = DATE_AND_TIME ( #240, #15 ) ;
#143 = DIRECTION ( 'NONE',  ( -4.256963957985706261E-31, -1.000000000000000000, -1.219242935835426903E-16 ) ) ;
#144 = LOCAL_TIME ( 13, 23, 45.00000000000000000, #190 ) ;
#145 = DIRECTION ( 'NONE',  ( 0.0000000000000000000, 0.0000000000000000000, 1.000000000000000000 ) ) ;
#146 = MECHANICAL_CONTEXT ( 'NONE', #120, 'mechanical' ) ;
#147 =( NAMED_UNIT ( * ) PLANE_ANGLE_UNIT ( ) SI_UNIT ( $, .RADIAN. ) );
#148 = LOCAL_TIME ( 13, 23, 45.00000000000000000, #92 ) ;
#149 = AXIS2_PLACEMENT_3D ( 'NONE', #3, #61, #188 ) ;
#150 = ADVANCED_FACE ( 'NONE', ( #98, #175 ), #223, .T. ) ;
#151 = COORDINATED_UNIVERSAL_TIME_OFFSET ( 1, 0, .AHEAD. ) ;
#152 = ORIENTED_EDGE ( 'NONE', *, *, #177, .F. ) ;
#153 = APPROVAL ( #211, 'UNSPECIFIED' ) ;
#154 = ORIENTED_EDGE ( 'NONE', *, *, #238, .F. ) ;
#155 = APPROVAL_DATE_TIME ( #97, #153 ) ;
#156 = DIRECTION ( 'NONE',  ( 0.0000000000000000000, -1.000000000000000000, 0.0000000000000000000 ) ) ;
#157 = EDGE_CURVE ( 'NONE', #36, #36, #163, .T. ) ;
#158 = CARTESIAN_POINT ( 'NONE',  ( 0.0000000000000000000, 0.0000000000000000000, 0.0000000000000000000 ) ) ;
#159 = CIRCLE ( 'NONE', #18, 0.2999999999999997113 ) ;
#160 = PRODUCT_DEFINITION ( 'UNKNOWN', '', #46, #25 ) ;
#161 = EDGE_LOOP ( 'NONE', ( #134 ) ) ;
#162 = AXIS2_PLACEMENT_3D ( 'NONE', #122, #33, #31 ) ;
#163 = CIRCLE ( 'NONE', #207, 0.2999999999999997113 ) ;
#164 = CARTESIAN_POINT ( 'NONE',  ( 6.284666409917638462E-15, -2.602085213965217051E-16, 1.799999999999999600 ) ) ;
#165 = APPROVAL_PERSON_ORGANIZATION ( #229, #153, #41 ) ;
#166 = COORDINATED_UNIVERSAL_TIME_OFFSET ( 1, 0, .AHEAD. ) ;
#167 = CARTESIAN_POINT ( 'NONE',  ( 6.284666409917635306E-15, -0.2999999999999999334, 1.799999999999998712 ) ) ;
#168 = APPLICATION_PROTOCOL_DEFINITION ( 'international standard', 'config_control_design', 1994, #120 ) ;
#169 = ORIENTED_EDGE ( 'NONE', *, *, #177, .T. ) ;
#170 = DATE_AND_TIME ( #73, #82 ) ;
#171 = DIRECTION ( 'NONE',  ( 3.491481338843133355E-15, -1.219242935835426903E-16, 1.000000000000000000 ) ) ;
#172 = DATE_AND_TIME ( #111, #35 ) ;
#173 = FACE_OUTER_BOUND ( 'NONE', #23, .T. ) ;
#174 = PERSON_AND_ORGANIZATION_ROLE ( 'classification_officer' ) ;
#175 = FACE_OUTER_BOUND ( 'NONE', #45, .T. ) ;
#176 = EDGE_LOOP ( 'NONE', ( #152 ) ) ;
#177 = EDGE_CURVE ( 'NONE', #123, #123, #53, .T. ) ;
#178 = DIRECTION ( 'NONE',  ( -3.491481338843133355E-15, 1.224646799147353207E-16, -1.000000000000000000 ) ) ;
#179 = DIRECTION ( 'NONE',  ( 3.491481338843133355E-15, -1.224646799147353207E-16, 1.000000000000000000 ) ) ;
#180 = APPLICATION_CONTEXT ( 'configuration controlled 3d designs of mechanical parts and assemblies' ) ;
#181 = APPLICATION_PROTOCOL_DEFINITION ( 'international standard', 'config_control_design', 1994, #180 ) ;
#182 = DIRECTION ( 'NONE',  ( 1.000000000000000000, 0.0000000000000000000, 0.0000000000000000000 ) ) ;
#183 = EDGE_LOOP ( 'NONE', ( #109 ) ) ;
#184 =( NAMED_UNIT ( * ) SI_UNIT ( $, .STERADIAN. ) SOLID_ANGLE_UNIT ( ) );
#185 = CARTESIAN_POINT ( 'NONE',  ( -8.551680453529350800E-31, 2.999525725151307090E-32, -2.449298628175645296E-16 ) ) ;
#186 = AXIS2_PLACEMENT_3D ( 'NONE', #51, #50, #199 ) ;
#187 = DATE_TIME_ROLE ( 'classification_date' ) ;
#188 = DIRECTION ( 'NONE',  ( -4.275831445896958607E-31, -1.000000000000000000, -1.224646799147353207E-16 ) ) ;
#189 = EDGE_CURVE ( 'NONE', #243, #243, #113, .T. ) ;
#190 = COORDINATED_UNIVERSAL_TIME_OFFSET ( 1, 0, .AHEAD. ) ;
#191 = ORIENTED_EDGE ( 'NONE', *, *, #157, .T. ) ;
#192 = EDGE_LOOP ( 'NONE', ( #191 ) ) ;
#193 = AXIS2_PLACEMENT_3D ( 'NONE', #136, #212, #215 ) ;
#194 = ORIENTED_EDGE ( 'NONE', *, *, #189, .T. ) ;
#195 = APPROVAL ( #58, 'UNSPECIFIED' ) ;
#196 = DIRECTION ( 'NONE',  ( 3.491481338843133355E-15, -1.219242935835426903E-16, 1.000000000000000000 ) ) ;
#197 = CARTESIAN_POINT ( 'NONE',  ( 6.284666409917635306E-15, -2.194637284503766650E-16, 1.799999999999998712 ) ) ;
#198 = PERSON ( 'UNSPECIFIED', 'UNSPECIFIED', 'UNSPECIFIED', ('UNSPECIFIED'), ('UNSPECIFIED'), ('UNSPECIFIED') ) ;
#199 = DIRECTION ( 'NONE',  ( 0.0000000000000000000, -1.000000000000000000, 0.0000000000000000000 ) ) ;
#200 = ADVANCED_FACE ( 'NONE', ( #139 ), #84, .F. ) ;
#201 = AXIS2_PLACEMENT_3D ( 'NONE', #164, #179, #102 ) ;
#202 = CC_DESIGN_SECURITY_CLASSIFICATION ( #64, ( #46 ) ) ;
#203 = CARTESIAN_POINT ( 'NONE',  ( 2.284045378728432653E-14, -1.499999999999995559, 6.541765964257531429 ) ) ;
#204 = ADVANCED_FACE ( 'NONE', ( #32, #86 ), #124, .T. ) ;
#205 = CARTESIAN_POINT ( 'NONE',  ( 6.284666409917635306E-15, -0.2999999999999999334, 1.799999999999998712 ) ) ;
#206 = VERTEX_POINT ( 'NONE', #205 ) ;
#207 = AXIS2_PLACEMENT_3D ( 'NONE', #197, #70, #141 ) ;
#208 = CARTESIAN_POINT ( 'NONE',  ( 1.316288464743861212E-13, 1.499999999999992228, 37.69999999999999574 ) ) ;
#209 = PLANE ( 'NONE',  #193 ) ;
#210 = CLOSED_SHELL ( 'NONE', ( #27, #204, #87, #150, #232, #200 ) ) ;
#211 = APPROVAL_STATUS ( 'not_yet_approved' ) ;
#212 = DIRECTION ( 'NONE',  ( -3.491481338843133355E-15, 1.224646799147353207E-16, -1.000000000000000000 ) ) ;
#213 = EDGE_LOOP ( 'NONE', ( #95 ) ) ;
#214 = CARTESIAN_POINT ( 'NONE',  ( 0.0000000000000000000, 0.0000000000000000000, 0.0000000000000000000 ) ) ;
#215 = DIRECTION ( 'NONE',  ( 4.275831445896958607E-31, 1.000000000000000000, 1.224646799147353207E-16 ) ) ;
#216 = AXIS2_PLACEMENT_3D ( 'NONE', #1, #171, #156 ) ;
#217 = DIRECTION ( 'NONE',  ( 0.0000000000000000000, 1.000000000000000000, 0.0000000000000000000 ) ) ;
#218 = DIRECTION ( 'NONE',  ( 0.0000000000000000000, -1.000000000000000000, 0.0000000000000000000 ) ) ;
#219 = CC_DESIGN_PERSON_AND_ORGANIZATION_ASSIGNMENT ( #135, #39, ( #46 ) ) ;
#220 = DATE_TIME_ROLE ( 'creation_date' ) ;
#221 = AXIS2_PLACEMENT_3D ( 'NONE', #67, #37, #143 ) ;
#222 = APPROVAL_DATE_TIME ( #142, #17 ) ;
#223 = CONICAL_SURFACE ( 'NONE', #65, 2.499999999999995559, 0.2617993877991430240 ) ;
#224 = PRODUCT_RELATED_PRODUCT_CATEGORY ( 'detail', '', ( #100 ) ) ;
#225 = ADVANCED_BREP_SHAPE_REPRESENTATION ( '61841', ( #104, #24, #68 ), #129 ) ;
#226 = APPROVAL_ROLE ( '' ) ;
#227 = DATE_AND_TIME ( #114, #148 ) ;
#228 = UNCERTAINTY_MEASURE_WITH_UNIT (LENGTH_MEASURE( 1.000000000000000082E-05 ), #14, 'distance_accuracy_value', 'NONE');
#229 = PERSON_AND_ORGANIZATION ( #198, #29 ) ;
#230 = DIRECTION ( 'NONE',  ( 0.0000000000000000000, -1.000000000000000000, 0.0000000000000000000 ) ) ;
#231 = ORIENTED_EDGE ( 'NONE', *, *, #9, .F. ) ;
#232 = ADVANCED_FACE ( 'NONE', ( #103, #10 ), #48, .F. ) ;
#233 = DIRECTION ( 'NONE',  ( -4.256963957985708889E-31, -1.000000000000000000, -1.219242935835426903E-16 ) ) ;
#234 = CARTESIAN_POINT ( 'NONE',  ( 6.284666409917635306E-15, -2.194637284503766650E-16, 1.799999999999998712 ) ) ;
#235 = AXIS2_PLACEMENT_3D ( 'NONE', #121, #11, #107 ) ;
#236 = CIRCLE ( 'NONE', #216, 0.3681483474218597562 ) ;
#237 = CARTESIAN_POINT ( 'NONE',  ( 1.326762908760390423E-13, -4.653657836759941941E-15, 38.00000000000000000 ) ) ;
#238 = EDGE_CURVE ( 'NONE', #89, #89, #81, .T. ) ;
#239 = CC_DESIGN_APPROVAL ( #195, ( #46 ) ) ;
#240 = CALENDAR_DATE ( 2021, 1, 11 ) ;
#241 = PERSON_AND_ORGANIZATION_ROLE ( 'creator' ) ;
#242 = CC_DESIGN_DATE_AND_TIME_ASSIGNMENT ( #170, #220, ( #160 ) ) ;
#243 = VERTEX_POINT ( 'NONE', #203 ) ;
ENDSEC;
END-ISO-10303-21;
