ISO-10303-21;
HEADER;
FILE_DESCRIPTION (( 'STEP AP203' ),
    '1' );
FILE_NAME ('6183.step',
    '2021-12-06T12:59:53',
    ( '' ),
    ( '' ),
    'SwSTEP 2.0',
    'SolidWorks 2019',
    '' );
FILE_SCHEMA (( 'CONFIG_CONTROL_DESIGN' ));
ENDSEC;

DATA;
#1 = CARTESIAN_POINT ( 'NONE',  ( 0.0000000000000000000, 0.0000000000000000000, 0.0000000000000000000 ) ) ;
#2 = FACE_OUTER_BOUND ( 'NONE', #49, .T. ) ;
#3 = APPROVAL_STATUS ( 'not_yet_approved' ) ;
#4 = EDGE_CURVE ( 'NONE', #94, #94, #102, .T. ) ;
#5 = PERSON_AND_ORGANIZATION ( #45, #75 ) ;
#6 = APPROVAL_STATUS ( 'not_yet_approved' ) ;
#7 = PERSON_AND_ORGANIZATION_ROLE ( 'design_supplier' ) ;
#8 = CC_DESIGN_SECURITY_CLASSIFICATION ( #90, ( #68 ) ) ;
#9 = ORIENTED_EDGE ( 'NONE', *, *, #21, .T. ) ;
#10 = CARTESIAN_POINT ( 'NONE',  ( 3.421138828918010427E-46, 2.500000000000000000, 0.0000000000000000000 ) ) ;
#11 = CYLINDRICAL_SURFACE ( 'NONE', #168, 7.500000000000000000 ) ;
#12 = CARTESIAN_POINT ( 'NONE',  ( -1.527082659248913788E-30, 7.651835625825805395E-32, -4.373738568383404417E-16 ) ) ;
#13 = APPROVAL_PERSON_ORGANIZATION ( #74, #126, #98 ) ;
#14 = FACE_OUTER_BOUND ( 'NONE', #119, .T. ) ;
#15 = ADVANCED_FACE ( 'NONE', ( #14, #47 ), #11, .T. ) ;
#16 = CALENDAR_DATE ( 2021, 6, 12 ) ;
#17 = DIRECTION ( 'NONE',  ( 0.0000000000000000000, 0.0000000000000000000, 1.000000000000000000 ) ) ;
#18 = PERSON_AND_ORGANIZATION_ROLE ( 'classification_officer' ) ;
#19 = SECURITY_CLASSIFICATION_LEVEL ( 'unclassified' ) ;
#20 = EDGE_LOOP ( 'NONE', ( #93 ) ) ;
#21 = EDGE_CURVE ( 'NONE', #108, #108, #77, .T. ) ;
#22 = PRODUCT_DEFINITION_SHAPE ( 'NONE', 'NONE',  #71 ) ;
#23 = CARTESIAN_POINT ( 'NONE',  ( 0.0000000000000000000, 7.500000000000000000, 0.0000000000000000000 ) ) ;
#24 = CARTESIAN_POINT ( 'NONE',  ( -1.527082659248913788E-30, 2.500000000000000000, -4.373738568383404417E-16 ) ) ;
#25 =( GEOMETRIC_REPRESENTATION_CONTEXT ( 3 ) GLOBAL_UNCERTAINTY_ASSIGNED_CONTEXT ( ( #99 ) ) GLOBAL_UNIT_ASSIGNED_CONTEXT ( ( #78, #63, #50 ) ) REPRESENTATION_CONTEXT ( 'NONE', 'WORKASPACE' ) );
#26 = CARTESIAN_POINT ( 'NONE',  ( 2.444036937190191771E-15, 2.500000000000000444, 0.6999999999999995115 ) ) ;
#27 = PRODUCT ( '6183', '6183', '', ( #153 ) ) ;
#28 = DIRECTION ( 'NONE',  ( -3.491481338843133355E-15, 1.749495427353361865E-16, -1.000000000000000000 ) ) ;
#29 = CARTESIAN_POINT ( 'NONE',  ( 2.444036937190189010E-15, -1.224646799147350989E-16, 0.6999999999999987343 ) ) ;
#30 = DATE_AND_TIME ( #164, #82 ) ;
#31 = PERSON_AND_ORGANIZATION_ROLE ( 'creator' ) ;
#32 = ORIENTED_EDGE ( 'NONE', *, *, #34, .F. ) ;
#33 = PERSON_AND_ORGANIZATION_ROLE ( 'design_owner' ) ;
#34 = EDGE_CURVE ( 'NONE', #149, #149, #52, .T. ) ;
#35 = APPROVAL_PERSON_ORGANIZATION ( #152, #73, #125 ) ;
#36 = DIRECTION ( 'NONE',  ( -3.491481338843133355E-15, 1.749495427353361865E-16, -1.000000000000000000 ) ) ;
#37 = FACE_BOUND ( 'NONE', #39, .T. ) ;
#38 = DIRECTION ( 'NONE',  ( 3.491481338843133355E-15, -1.749495427353361865E-16, 1.000000000000000000 ) ) ;
#39 = EDGE_LOOP ( 'NONE', ( #32 ) ) ;
#40 = FACE_BOUND ( 'NONE', #146, .T. ) ;
#41 = COORDINATED_UNIVERSAL_TIME_OFFSET ( 1, 0, .AHEAD. ) ;
#42 = DATE_TIME_ROLE ( 'creation_date' ) ;
#43 = COORDINATED_UNIVERSAL_TIME_OFFSET ( 1, 0, .AHEAD. ) ;
#44 = ADVANCED_FACE ( 'NONE', ( #80, #105 ), #67, .F. ) ;
#45 = PERSON ( 'UNSPECIFIED', 'UNSPECIFIED', 'UNSPECIFIED', ('UNSPECIFIED'), ('UNSPECIFIED'), ('UNSPECIFIED') ) ;
#46 = PRODUCT_RELATED_PRODUCT_CATEGORY ( 'detail', '', ( #27 ) ) ;
#47 = FACE_OUTER_BOUND ( 'NONE', #64, .T. ) ;
#48 = CC_DESIGN_PERSON_AND_ORGANIZATION_ASSIGNMENT ( #137, #18, ( #90 ) ) ;
#49 = EDGE_LOOP ( 'NONE', ( #51 ) ) ;
#50 =( NAMED_UNIT ( * ) SI_UNIT ( $, .STERADIAN. ) SOLID_ANGLE_UNIT ( ) );
#51 = ORIENTED_EDGE ( 'NONE', *, *, #4, .T. ) ;
#52 = CIRCLE ( 'NONE', #140, 2.500000000000000000 ) ;
#53 = PLANE ( 'NONE',  #106 ) ;
#54 = DATE_AND_TIME ( #16, #60 ) ;
#55 = COORDINATED_UNIVERSAL_TIME_OFFSET ( 1, 0, .AHEAD. ) ;
#56 = EDGE_LOOP ( 'NONE', ( #115 ) ) ;
#57 = DATE_AND_TIME ( #87, #166 ) ;
#58 = DESIGN_CONTEXT ( 'detailed design', #131, 'design' ) ;
#59 = DIRECTION ( 'NONE',  ( 1.000000000000000000, 0.0000000000000000000, 0.0000000000000000000 ) ) ;
#60 = LOCAL_TIME ( 13, 59, 53.00000000000000000, #41 ) ;
#61 = AXIS2_PLACEMENT_3D ( 'NONE', #145, #134, #104 ) ;
#62 = CARTESIAN_POINT ( 'NONE',  ( 2.444036937190193743E-15, 7.500000000000000000, 0.6999999999999999556 ) ) ;
#63 =( NAMED_UNIT ( * ) PLANE_ANGLE_UNIT ( ) SI_UNIT ( $, .RADIAN. ) );
#64 = EDGE_LOOP ( 'NONE', ( #118 ) ) ;
#65 = CC_DESIGN_DATE_AND_TIME_ASSIGNMENT ( #30, #42, ( #71 ) ) ;
#66 = ORIENTED_EDGE ( 'NONE', *, *, #129, .T. ) ;
#67 = CYLINDRICAL_SURFACE ( 'NONE', #61, 2.500000000000000444 ) ;
#68 = PRODUCT_DEFINITION_FORMATION_WITH_SPECIFIED_SOURCE ( 'ANY', '', #27, .NOT_KNOWN. ) ;
#69 = DIRECTION ( 'NONE',  ( 6.108330636995656904E-31, 1.000000000000000000, 1.749495427353361865E-16 ) ) ;
#70 = APPLICATION_PROTOCOL_DEFINITION ( 'international standard', 'config_control_design', 1994, #91 ) ;
#71 = PRODUCT_DEFINITION ( 'UNKNOWN', '', #68, #58 ) ;
#72 = APPROVAL_ROLE ( '' ) ;
#73 = APPROVAL ( #6, 'UNSPECIFIED' ) ;
#74 = PERSON_AND_ORGANIZATION ( #45, #75 ) ;
#75 = ORGANIZATION ( 'UNSPECIFIED', 'UNSPECIFIED', '' ) ;
#76 = DIRECTION ( 'NONE',  ( 6.108330636995656028E-31, 1.000000000000000000, 1.749495427353361865E-16 ) ) ;
#77 = CIRCLE ( 'NONE', #97, 2.500000000000000444 ) ;
#78 =( LENGTH_UNIT ( ) NAMED_UNIT ( * ) SI_UNIT ( .MILLI., .METRE. ) );
#79 = CC_DESIGN_PERSON_AND_ORGANIZATION_ASSIGNMENT ( #155, #151, ( #71 ) ) ;
#80 = FACE_OUTER_BOUND ( 'NONE', #20, .T. ) ;
#81 = PLANE ( 'NONE',  #165 ) ;
#82 = LOCAL_TIME ( 13, 59, 53.00000000000000000, #88 ) ;
#83 = CC_DESIGN_PERSON_AND_ORGANIZATION_ASSIGNMENT ( #5, #33, ( #27 ) ) ;
#84 = PERSON_AND_ORGANIZATION ( #45, #75 ) ;
#85 = CALENDAR_DATE ( 2021, 6, 12 ) ;
#86 = ADVANCED_BREP_SHAPE_REPRESENTATION ( '6183', ( #138, #147 ), #25 ) ;
#87 = CALENDAR_DATE ( 2021, 6, 12 ) ;
#88 = COORDINATED_UNIVERSAL_TIME_OFFSET ( 1, 0, .AHEAD. ) ;
#89 = CIRCLE ( 'NONE', #123, 7.500000000000000000 ) ;
#90 = SECURITY_CLASSIFICATION ( '', '', #19 ) ;
#91 = APPLICATION_CONTEXT ( 'configuration controlled 3d designs of mechanical parts and assemblies' ) ;
#92 = DIRECTION ( 'NONE',  ( -3.491481338843133355E-15, 1.749495427353361865E-16, -1.000000000000000000 ) ) ;
#93 = ORIENTED_EDGE ( 'NONE', *, *, #34, .T. ) ;
#94 = VERTEX_POINT ( 'NONE', #23 ) ;
#95 = DIRECTION ( 'NONE',  ( -3.491481338843133355E-15, 1.749495427353361865E-16, -1.000000000000000000 ) ) ;
#96 = APPROVAL_STATUS ( 'not_yet_approved' ) ;
#97 = AXIS2_PLACEMENT_3D ( 'NONE', #136, #36, #107 ) ;
#98 = APPROVAL_ROLE ( '' ) ;
#99 = UNCERTAINTY_MEASURE_WITH_UNIT (LENGTH_MEASURE( 1.000000000000000082E-05 ), #78, 'distance_accuracy_value', 'NONE');
#100 = DATE_AND_TIME ( #85, #162 ) ;
#101 = ADVANCED_FACE ( 'NONE', ( #40, #158 ), #81, .T. ) ;
#102 = CIRCLE ( 'NONE', #142, 7.500000000000000000 ) ;
#103 = CC_DESIGN_APPROVAL ( #143, ( #71 ) ) ;
#104 = DIRECTION ( 'NONE',  ( 6.108330636995656028E-31, 1.000000000000000000, 1.749495427353361865E-16 ) ) ;
#105 = FACE_OUTER_BOUND ( 'NONE', #56, .T. ) ;
#106 = AXIS2_PLACEMENT_3D ( 'NONE', #24, #92, #144 ) ;
#107 = DIRECTION ( 'NONE',  ( 6.162975822039153854E-31, 1.000000000000000000, 1.734723475976806848E-16 ) ) ;
#108 = VERTEX_POINT ( 'NONE', #128 ) ;
#109 = APPROVAL_DATE_TIME ( #54, #126 ) ;
#110 = APPROVAL_DATE_TIME ( #57, #73 ) ;
#111 = DATE_TIME_ROLE ( 'classification_date' ) ;
#112 = APPROVAL_DATE_TIME ( #100, #143 ) ;
#113 = CC_DESIGN_APPROVAL ( #73, ( #68 ) ) ;
#114 = CC_DESIGN_PERSON_AND_ORGANIZATION_ASSIGNMENT ( #84, #7, ( #68 ) ) ;
#115 = ORIENTED_EDGE ( 'NONE', *, *, #21, .F. ) ;
#116 = CLOSED_SHELL ( 'NONE', ( #133, #15, #101, #44 ) ) ;
#117 = EDGE_LOOP ( 'NONE', ( #167 ) ) ;
#118 = ORIENTED_EDGE ( 'NONE', *, *, #4, .F. ) ;
#119 = EDGE_LOOP ( 'NONE', ( #66 ) ) ;
#120 = CALENDAR_DATE ( 2021, 6, 12 ) ;
#121 = SHAPE_DEFINITION_REPRESENTATION ( #22, #86 ) ;
#122 = PERSON_AND_ORGANIZATION ( #45, #75 ) ;
#123 = AXIS2_PLACEMENT_3D ( 'NONE', #29, #95, #159 ) ;
#124 = PERSON_AND_ORGANIZATION ( #45, #75 ) ;
#125 = APPROVAL_ROLE ( '' ) ;
#126 = APPROVAL ( #3, 'UNSPECIFIED' ) ;
#127 = CC_DESIGN_PERSON_AND_ORGANIZATION_ASSIGNMENT ( #122, #31, ( #68 ) ) ;
#128 = CARTESIAN_POINT ( 'NONE',  ( 2.444036937190193349E-15, 2.500000000000000444, 0.6999999999999999556 ) ) ;
#129 = EDGE_CURVE ( 'NONE', #148, #148, #89, .T. ) ;
#130 = DIRECTION ( 'NONE',  ( -6.108330636995656028E-31, -1.000000000000000000, -1.749495427353361865E-16 ) ) ;
#131 = APPLICATION_CONTEXT ( 'configuration controlled 3d designs of mechanical parts and assemblies' ) ;
#132 = DIRECTION ( 'NONE',  ( -3.491481338843133355E-15, 1.749495427353361865E-16, -1.000000000000000000 ) ) ;
#133 = ADVANCED_FACE ( 'NONE', ( #2, #37 ), #53, .T. ) ;
#134 = DIRECTION ( 'NONE',  ( -3.491481338843133355E-15, 1.749495427353361865E-16, -1.000000000000000000 ) ) ;
#135 = LOCAL_TIME ( 13, 59, 53.00000000000000000, #55 ) ;
#136 = CARTESIAN_POINT ( 'NONE',  ( 2.444036937190191771E-15, -1.224646799147352468E-16, 0.6999999999999995115 ) ) ;
#137 = PERSON_AND_ORGANIZATION ( #45, #75 ) ;
#138 = MANIFOLD_SOLID_BREP ( 'Corps-Déplacer/Copier1', #116 ) ;
#139 = DATE_AND_TIME ( #120, #135 ) ;
#140 = AXIS2_PLACEMENT_3D ( 'NONE', #12, #28, #69 ) ;
#141 = COORDINATED_UNIVERSAL_TIME_OFFSET ( 1, 0, .AHEAD. ) ;
#142 = AXIS2_PLACEMENT_3D ( 'NONE', #169, #160, #76 ) ;
#143 = APPROVAL ( #96, 'UNSPECIFIED' ) ;
#144 = DIRECTION ( 'NONE',  ( 6.108330636995656028E-31, 1.000000000000000000, 1.749495427353361865E-16 ) ) ;
#145 = CARTESIAN_POINT ( 'NONE',  ( 0.0000000000000000000, 0.0000000000000000000, 0.0000000000000000000 ) ) ;
#146 = EDGE_LOOP ( 'NONE', ( #9 ) ) ;
#147 = AXIS2_PLACEMENT_3D ( 'NONE', #161, #17, #59 ) ;
#148 = VERTEX_POINT ( 'NONE', #62 ) ;
#149 = VERTEX_POINT ( 'NONE', #10 ) ;
#150 = DIRECTION ( 'NONE',  ( 6.108330636995656028E-31, 1.000000000000000000, 1.749495427353361865E-16 ) ) ;
#151 = PERSON_AND_ORGANIZATION_ROLE ( 'creator' ) ;
#152 = PERSON_AND_ORGANIZATION ( #45, #75 ) ;
#153 = MECHANICAL_CONTEXT ( 'NONE', #91, 'mechanical' ) ;
#154 = CC_DESIGN_DATE_AND_TIME_ASSIGNMENT ( #139, #111, ( #90 ) ) ;
#155 = PERSON_AND_ORGANIZATION ( #45, #75 ) ;
#156 = APPROVAL_PERSON_ORGANIZATION ( #124, #143, #72 ) ;
#157 = CC_DESIGN_APPROVAL ( #126, ( #90 ) ) ;
#158 = FACE_OUTER_BOUND ( 'NONE', #117, .T. ) ;
#159 = DIRECTION ( 'NONE',  ( 6.162975822039154730E-31, 1.000000000000000000, 1.734723475976807094E-16 ) ) ;
#160 = DIRECTION ( 'NONE',  ( -3.491481338843133355E-15, 1.749495427353361865E-16, -1.000000000000000000 ) ) ;
#161 = CARTESIAN_POINT ( 'NONE',  ( 0.0000000000000000000, 0.0000000000000000000, 0.0000000000000000000 ) ) ;
#162 = LOCAL_TIME ( 13, 59, 53.00000000000000000, #43 ) ;
#163 = APPLICATION_PROTOCOL_DEFINITION ( 'international standard', 'config_control_design', 1994, #131 ) ;
#164 = CALENDAR_DATE ( 2021, 6, 12 ) ;
#165 = AXIS2_PLACEMENT_3D ( 'NONE', #26, #38, #130 ) ;
#166 = LOCAL_TIME ( 13, 59, 53.00000000000000000, #141 ) ;
#167 = ORIENTED_EDGE ( 'NONE', *, *, #129, .F. ) ;
#168 = AXIS2_PLACEMENT_3D ( 'NONE', #1, #132, #150 ) ;
#169 = CARTESIAN_POINT ( 'NONE',  ( -4.581247977746741890E-30, 2.295550687747741728E-31, -1.312121570515021473E-15 ) ) ;
ENDSEC;
END-ISO-10303-21;
