ISO-10303-21;
HEADER;
FILE_DESCRIPTION (( 'STEP AP203' ),
    '1' );
FILE_NAME ('618.step',
    '2021-12-06T12:59:52',
    ( '' ),
    ( '' ),
    'SwSTEP 2.0',
    'SolidWorks 2019',
    '' );
FILE_SCHEMA (( 'CONFIG_CONTROL_DESIGN' ));
ENDSEC;

DATA;
#1 = CALENDAR_DATE ( 2021, 6, 12 ) ;
#2 = DIRECTION ( 'NONE',  ( 1.710332578358782041E-30, 1.000000000000000000, 4.898587196589407898E-16 ) ) ;
#3 = PRODUCT_DEFINITION_FORMATION_WITH_SPECIFIED_SOURCE ( 'ANY', '', #29, .NOT_KNOWN. ) ;
#4 = CIRCLE ( 'NONE', #30, 10.00000000000000000 ) ;
#5 = DIRECTION ( 'NONE',  ( 1.710332578358782041E-30, 1.000000000000000000, 4.898587196589407898E-16 ) ) ;
#6 = AXIS2_PLACEMENT_3D ( 'NONE', #108, #15, #12 ) ;
#7 = SECURITY_CLASSIFICATION_LEVEL ( 'unclassified' ) ;
#8 = CARTESIAN_POINT ( 'NONE',  ( -6.413747168845432480E-30, 2.500000000000000000, -1.836970198721028011E-15 ) ) ;
#9 = EDGE_LOOP ( 'NONE', ( #145 ) ) ;
#10 = ORIENTED_EDGE ( 'NONE', *, *, #47, .F. ) ;
#11 = DIRECTION ( 'NONE',  ( 0.0000000000000000000, 0.0000000000000000000, 1.000000000000000000 ) ) ;
#12 = DIRECTION ( 'NONE',  ( -1.710332578358781691E-30, -1.000000000000000000, -4.898587196589407898E-16 ) ) ;
#13 = APPROVAL_PERSON_ORGANIZATION ( #31, #46, #32 ) ;
#14 = ADVANCED_FACE ( 'NONE', ( #128, #147 ), #67, .T. ) ;
#15 = DIRECTION ( 'NONE',  ( 3.491481338843133355E-15, -4.898587196589407898E-16, 1.000000000000000000 ) ) ;
#16 = COORDINATED_UNIVERSAL_TIME_OFFSET ( 1, 0, .AHEAD. ) ;
#17 = APPLICATION_CONTEXT ( 'configuration controlled 3d designs of mechanical parts and assemblies' ) ;
#18 = APPROVAL_STATUS ( 'not_yet_approved' ) ;
#19 = DIRECTION ( 'NONE',  ( -3.491481338843133355E-15, 4.898587196589407898E-16, -1.000000000000000000 ) ) ;
#20 = EDGE_LOOP ( 'NONE', ( #109 ) ) ;
#21 = DIRECTION ( 'NONE',  ( 1.710332578358781691E-30, 1.000000000000000000, 4.898587196589407898E-16 ) ) ;
#22 = PRODUCT_RELATED_PRODUCT_CATEGORY ( 'detail', '', ( #29 ) ) ;
#23 = FACE_OUTER_BOUND ( 'NONE', #37, .T. ) ;
#24 = DIRECTION ( 'NONE',  ( 1.694818351060767200E-30, 1.000000000000000000, 4.987329993433319410E-16 ) ) ;
#25 = CC_DESIGN_SECURITY_CLASSIFICATION ( #65, ( #3 ) ) ;
#26 = FACE_OUTER_BOUND ( 'NONE', #53, .T. ) ;
#27 = APPROVAL_ROLE ( '' ) ;
#28 = LOCAL_TIME ( 13, 59, 52.00000000000000000, #48 ) ;
#29 = PRODUCT ( '618', '618', '', ( #42 ) ) ;
#30 = AXIS2_PLACEMENT_3D ( 'NONE', #86, #69, #111 ) ;
#31 = PERSON_AND_ORGANIZATION ( #164, #50 ) ;
#32 = APPROVAL_ROLE ( '' ) ;
#33 = PERSON_AND_ORGANIZATION ( #164, #50 ) ;
#34 = EDGE_LOOP ( 'NONE', ( #95 ) ) ;
#35 = CC_DESIGN_APPROVAL ( #46, ( #65 ) ) ;
#36 = DIRECTION ( 'NONE',  ( -3.491481338843133355E-15, 4.898587196589407898E-16, -1.000000000000000000 ) ) ;
#37 = EDGE_LOOP ( 'NONE', ( #157 ) ) ;
#38 = EDGE_LOOP ( 'NONE', ( #146 ) ) ;
#39 = CARTESIAN_POINT ( 'NONE',  ( 0.0000000000000000000, 10.00000000000000000, 0.0000000000000000000 ) ) ;
#40 =( LENGTH_UNIT ( ) NAMED_UNIT ( * ) SI_UNIT ( .MILLI., .METRE. ) );
#41 = CARTESIAN_POINT ( 'NONE',  ( 8.728703347107839305E-16, 2.500000000000000444, 0.2500000000000002220 ) ) ;
#42 = MECHANICAL_CONTEXT ( 'NONE', #66, 'mechanical' ) ;
#43 = LOCAL_TIME ( 13, 59, 52.00000000000000000, #137 ) ;
#44 = PERSON_AND_ORGANIZATION_ROLE ( 'creator' ) ;
#45 = APPROVAL_DATE_TIME ( #166, #72 ) ;
#46 = APPROVAL ( #18, 'UNSPECIFIED' ) ;
#47 = EDGE_CURVE ( 'NONE', #87, #87, #59, .T. ) ;
#48 = COORDINATED_UNIVERSAL_TIME_OFFSET ( 1, 0, .AHEAD. ) ;
#49 = PERSON_AND_ORGANIZATION_ROLE ( 'creator' ) ;
#50 = ORGANIZATION ( 'UNSPECIFIED', 'UNSPECIFIED', '' ) ;
#51 = CIRCLE ( 'NONE', #150, 2.500000000000000000 ) ;
#52 = EDGE_LOOP ( 'NONE', ( #10 ) ) ;
#53 = EDGE_LOOP ( 'NONE', ( #96 ) ) ;
#54 = CC_DESIGN_PERSON_AND_ORGANIZATION_ASSIGNMENT ( #62, #153, ( #29 ) ) ;
#55 = FACE_OUTER_BOUND ( 'NONE', #9, .T. ) ;
#56 = DATE_AND_TIME ( #1, #120 ) ;
#57 = CC_DESIGN_PERSON_AND_ORGANIZATION_ASSIGNMENT ( #64, #49, ( #3 ) ) ;
#58 = APPROVAL_DATE_TIME ( #133, #106 ) ;
#59 = CIRCLE ( 'NONE', #140, 10.00000000000000000 ) ;
#60 = CALENDAR_DATE ( 2021, 6, 12 ) ;
#61 = APPLICATION_PROTOCOL_DEFINITION ( 'international standard', 'config_control_design', 1994, #66 ) ;
#62 = PERSON_AND_ORGANIZATION ( #164, #50 ) ;
#63 = DATE_AND_TIME ( #155, #134 ) ;
#64 = PERSON_AND_ORGANIZATION ( #164, #50 ) ;
#65 = SECURITY_CLASSIFICATION ( '', '', #7 ) ;
#66 = APPLICATION_CONTEXT ( 'configuration controlled 3d designs of mechanical parts and assemblies' ) ;
#67 = PLANE ( 'NONE',  #81 ) ;
#68 = CYLINDRICAL_SURFACE ( 'NONE', #77, 10.00000000000000000 ) ;
#69 = DIRECTION ( 'NONE',  ( -3.491481338843133355E-15, 4.898587196589407898E-16, -1.000000000000000000 ) ) ;
#70 = DIRECTION ( 'NONE',  ( -3.491481338843133355E-15, 4.898587196589407898E-16, -1.000000000000000000 ) ) ;
#71 = CYLINDRICAL_SURFACE ( 'NONE', #122, 2.500000000000000444 ) ;
#72 = APPROVAL ( #151, 'UNSPECIFIED' ) ;
#73 = VERTEX_POINT ( 'NONE', #41 ) ;
#74 = DESIGN_CONTEXT ( 'detailed design', #17, 'design' ) ;
#75 = CARTESIAN_POINT ( 'NONE',  ( 0.0000000000000000000, 2.500000000000000000, 0.0000000000000000000 ) ) ;
#76 = CC_DESIGN_PERSON_AND_ORGANIZATION_ASSIGNMENT ( #118, #44, ( #131 ) ) ;
#77 = AXIS2_PLACEMENT_3D ( 'NONE', #144, #19, #97 ) ;
#78 = CC_DESIGN_PERSON_AND_ORGANIZATION_ASSIGNMENT ( #104, #154, ( #65 ) ) ;
#79 = CC_DESIGN_APPROVAL ( #72, ( #3 ) ) ;
#80 = FACE_OUTER_BOUND ( 'NONE', #52, .T. ) ;
#81 = AXIS2_PLACEMENT_3D ( 'NONE', #8, #36, #21 ) ;
#82 = EDGE_LOOP ( 'NONE', ( #110 ) ) ;
#83 = CC_DESIGN_DATE_AND_TIME_ASSIGNMENT ( #105, #139, ( #65 ) ) ;
#84 = EDGE_CURVE ( 'NONE', #101, #101, #4, .T. ) ;
#85 = DIRECTION ( 'NONE',  ( -3.491481338843133355E-15, 4.898587196589407898E-16, -1.000000000000000000 ) ) ;
#86 = CARTESIAN_POINT ( 'NONE',  ( -1.710332578358781901E-29, 2.399615652258967618E-30, -4.898587196589408293E-15 ) ) ;
#87 = VERTEX_POINT ( 'NONE', #135 ) ;
#88 = CARTESIAN_POINT ( 'NONE',  ( 8.728703347107796903E-16, -1.224646799147346798E-16, 0.2499999999999989730 ) ) ;
#89 = APPROVAL_STATUS ( 'not_yet_approved' ) ;
#90 = ADVANCED_FACE ( 'NONE', ( #129, #55 ), #68, .T. ) ;
#91 = PERSON_AND_ORGANIZATION ( #164, #50 ) ;
#92 = APPROVAL_ROLE ( '' ) ;
#93 = APPROVAL_PERSON_ORGANIZATION ( #99, #72, #92 ) ;
#94 = SHAPE_DEFINITION_REPRESENTATION ( #127, #100 ) ;
#95 = ORIENTED_EDGE ( 'NONE', *, *, #47, .T. ) ;
#96 = ORIENTED_EDGE ( 'NONE', *, *, #148, .T. ) ;
#97 = DIRECTION ( 'NONE',  ( 1.710332578358782041E-30, 1.000000000000000000, 4.898587196589407898E-16 ) ) ;
#98 = APPROVAL_PERSON_ORGANIZATION ( #91, #106, #27 ) ;
#99 = PERSON_AND_ORGANIZATION ( #164, #50 ) ;
#100 = ADVANCED_BREP_SHAPE_REPRESENTATION ( '618', ( #143, #130 ), #160 ) ;
#101 = VERTEX_POINT ( 'NONE', #39 ) ;
#102 =( NAMED_UNIT ( * ) PLANE_ANGLE_UNIT ( ) SI_UNIT ( $, .RADIAN. ) );
#103 = CC_DESIGN_DATE_AND_TIME_ASSIGNMENT ( #56, #112, ( #131 ) ) ;
#104 = PERSON_AND_ORGANIZATION ( #164, #50 ) ;
#105 = DATE_AND_TIME ( #141, #124 ) ;
#106 = APPROVAL ( #89, 'UNSPECIFIED' ) ;
#107 = CC_DESIGN_APPROVAL ( #106, ( #131 ) ) ;
#108 = CARTESIAN_POINT ( 'NONE',  ( 8.728703347107772251E-16, 2.500000000000000444, 0.2499999999999982792 ) ) ;
#109 = ORIENTED_EDGE ( 'NONE', *, *, #148, .F. ) ;
#110 = ORIENTED_EDGE ( 'NONE', *, *, #84, .T. ) ;
#111 = DIRECTION ( 'NONE',  ( 1.710332578358782041E-30, 1.000000000000000000, 4.898587196589407898E-16 ) ) ;
#112 = DATE_TIME_ROLE ( 'creation_date' ) ;
#113 = CLOSED_SHELL ( 'NONE', ( #14, #90, #116, #142 ) ) ;
#114 = CARTESIAN_POINT ( 'NONE',  ( 0.0000000000000000000, 0.0000000000000000000, 0.0000000000000000000 ) ) ;
#115 = CARTESIAN_POINT ( 'NONE',  ( -4.275831445896954753E-30, 5.999039130647419046E-31, -1.224646799147352073E-15 ) ) ;
#116 = ADVANCED_FACE ( 'NONE', ( #149, #80 ), #167, .T. ) ;
#117 = CARTESIAN_POINT ( 'NONE',  ( 0.0000000000000000000, 0.0000000000000000000, 0.0000000000000000000 ) ) ;
#118 = PERSON_AND_ORGANIZATION ( #164, #50 ) ;
#119 = PERSON_AND_ORGANIZATION_ROLE ( 'design_supplier' ) ;
#120 = LOCAL_TIME ( 13, 59, 52.00000000000000000, #138 ) ;
#121 = CC_DESIGN_PERSON_AND_ORGANIZATION_ASSIGNMENT ( #33, #119, ( #3 ) ) ;
#122 = AXIS2_PLACEMENT_3D ( 'NONE', #114, #163, #5 ) ;
#123 = DIRECTION ( 'NONE',  ( 1.714077650504639909E-30, 1.000000000000000000, 4.878909776184769953E-16 ) ) ;
#124 = LOCAL_TIME ( 13, 59, 52.00000000000000000, #126 ) ;
#125 = APPROVAL_DATE_TIME ( #63, #46 ) ;
#126 = COORDINATED_UNIVERSAL_TIME_OFFSET ( 1, 0, .AHEAD. ) ;
#127 = PRODUCT_DEFINITION_SHAPE ( 'NONE', 'NONE',  #131 ) ;
#128 = FACE_OUTER_BOUND ( 'NONE', #82, .T. ) ;
#129 = FACE_OUTER_BOUND ( 'NONE', #34, .T. ) ;
#130 = AXIS2_PLACEMENT_3D ( 'NONE', #117, #11, #162 ) ;
#131 = PRODUCT_DEFINITION ( 'UNKNOWN', '', #3, #74 ) ;
#132 =( NAMED_UNIT ( * ) SI_UNIT ( $, .STERADIAN. ) SOLID_ANGLE_UNIT ( ) );
#133 = DATE_AND_TIME ( #60, #43 ) ;
#134 = LOCAL_TIME ( 13, 59, 52.00000000000000000, #16 ) ;
#135 = CARTESIAN_POINT ( 'NONE',  ( 8.728703347107833388E-16, 10.00000000000000000, 0.2500000000000000000 ) ) ;
#136 = UNCERTAINTY_MEASURE_WITH_UNIT (LENGTH_MEASURE( 1.000000000000000082E-05 ), #40, 'distance_accuracy_value', 'NONE');
#137 = COORDINATED_UNIVERSAL_TIME_OFFSET ( 1, 0, .AHEAD. ) ;
#138 = COORDINATED_UNIVERSAL_TIME_OFFSET ( 1, 0, .AHEAD. ) ;
#139 = DATE_TIME_ROLE ( 'classification_date' ) ;
#140 = AXIS2_PLACEMENT_3D ( 'NONE', #169, #85, #123 ) ;
#141 = CALENDAR_DATE ( 2021, 6, 12 ) ;
#142 = ADVANCED_FACE ( 'NONE', ( #26, #23 ), #71, .F. ) ;
#143 = MANIFOLD_SOLID_BREP ( 'Corps-Déplacer/Copier1', #113 ) ;
#144 = CARTESIAN_POINT ( 'NONE',  ( 0.0000000000000000000, 0.0000000000000000000, 0.0000000000000000000 ) ) ;
#145 = ORIENTED_EDGE ( 'NONE', *, *, #84, .F. ) ;
#146 = ORIENTED_EDGE ( 'NONE', *, *, #158, .T. ) ;
#147 = FACE_BOUND ( 'NONE', #20, .T. ) ;
#148 = EDGE_CURVE ( 'NONE', #159, #159, #51, .T. ) ;
#149 = FACE_BOUND ( 'NONE', #38, .T. ) ;
#150 = AXIS2_PLACEMENT_3D ( 'NONE', #115, #161, #2 ) ;
#151 = APPROVAL_STATUS ( 'not_yet_approved' ) ;
#152 = APPLICATION_PROTOCOL_DEFINITION ( 'international standard', 'config_control_design', 1994, #17 ) ;
#153 = PERSON_AND_ORGANIZATION_ROLE ( 'design_owner' ) ;
#154 = PERSON_AND_ORGANIZATION_ROLE ( 'classification_officer' ) ;
#155 = CALENDAR_DATE ( 2021, 6, 12 ) ;
#156 = AXIS2_PLACEMENT_3D ( 'NONE', #88, #70, #24 ) ;
#157 = ORIENTED_EDGE ( 'NONE', *, *, #158, .F. ) ;
#158 = EDGE_CURVE ( 'NONE', #73, #73, #168, .T. ) ;
#159 = VERTEX_POINT ( 'NONE', #75 ) ;
#160 =( GEOMETRIC_REPRESENTATION_CONTEXT ( 3 ) GLOBAL_UNCERTAINTY_ASSIGNED_CONTEXT ( ( #136 ) ) GLOBAL_UNIT_ASSIGNED_CONTEXT ( ( #40, #102, #132 ) ) REPRESENTATION_CONTEXT ( 'NONE', 'WORKASPACE' ) );
#161 = DIRECTION ( 'NONE',  ( -3.491481338843133355E-15, 4.898587196589407898E-16, -1.000000000000000000 ) ) ;
#162 = DIRECTION ( 'NONE',  ( 1.000000000000000000, 0.0000000000000000000, 0.0000000000000000000 ) ) ;
#163 = DIRECTION ( 'NONE',  ( -3.491481338843133355E-15, 4.898587196589407898E-16, -1.000000000000000000 ) ) ;
#164 = PERSON ( 'UNSPECIFIED', 'UNSPECIFIED', 'UNSPECIFIED', ('UNSPECIFIED'), ('UNSPECIFIED'), ('UNSPECIFIED') ) ;
#165 = CALENDAR_DATE ( 2021, 6, 12 ) ;
#166 = DATE_AND_TIME ( #165, #28 ) ;
#167 = PLANE ( 'NONE',  #6 ) ;
#168 = CIRCLE ( 'NONE', #156, 2.500000000000000444 ) ;
#169 = CARTESIAN_POINT ( 'NONE',  ( 8.728703347107661811E-16, -1.224646799147328062E-16, 0.2499999999999951150 ) ) ;
ENDSEC;
END-ISO-10303-21;
