ISO-10303-21;
HEADER;
FILE_DESCRIPTION (( 'STEP AP203' ),
    '1' );
FILE_NAME ('6170.step',
    '2021-12-06T12:59:51',
    ( '' ),
    ( '' ),
    'SwSTEP 2.0',
    'SolidWorks 2019',
    '' );
FILE_SCHEMA (( 'CONFIG_CONTROL_DESIGN' ));
ENDSEC;

DATA;
#1 = DATE_AND_TIME ( #2, #21 ) ;
#2 = CALENDAR_DATE ( 2021, 6, 12 ) ;
#3 = CIRCLE ( 'NONE', #101, 20.00000000000000355 ) ;
#4 = DATE_TIME_ROLE ( 'creation_date' ) ;
#5 = CYLINDRICAL_SURFACE ( 'NONE', #8, 20.00000000000000355 ) ;
#6 = EDGE_CURVE ( 'NONE', #51, #51, #165, .T. ) ;
#7 = VERTEX_POINT ( 'NONE', #161 ) ;
#8 = AXIS2_PLACEMENT_3D ( 'NONE', #135, #159, #67 ) ;
#9 = PERSON_AND_ORGANIZATION ( #81, #42 ) ;
#10 = CC_DESIGN_APPROVAL ( #153, ( #41 ) ) ;
#11 = APPROVAL_PERSON_ORGANIZATION ( #111, #120, #162 ) ;
#12 = ORIENTED_EDGE ( 'NONE', *, *, #6, .F. ) ;
#13 = AXIS2_PLACEMENT_3D ( 'NONE', #28, #118, #119 ) ;
#14 = DIRECTION ( 'NONE',  ( -2.515194968174681508E-31, -1.000000000000000000, -7.203804700866783572E-17 ) ) ;
#15 = FACE_OUTER_BOUND ( 'NONE', #155, .T. ) ;
#16 =( NAMED_UNIT ( * ) SI_UNIT ( $, .STERADIAN. ) SOLID_ANGLE_UNIT ( ) );
#17 = DIRECTION ( 'NONE',  ( -3.491481338843133355E-15, 7.203804700866783572E-17, -1.000000000000000000 ) ) ;
#18 = EDGE_CURVE ( 'NONE', #52, #52, #49, .T. ) ;
#19 = CARTESIAN_POINT ( 'NONE',  ( 0.0000000000000000000, 0.0000000000000000000, 0.0000000000000000000 ) ) ;
#20 = PERSON_AND_ORGANIZATION ( #81, #42 ) ;
#21 = LOCAL_TIME ( 13, 59, 51.00000000000000000, #64 ) ;
#22 = CALENDAR_DATE ( 2021, 6, 12 ) ;
#23 = CALENDAR_DATE ( 2021, 6, 12 ) ;
#24 = COORDINATED_UNIVERSAL_TIME_OFFSET ( 1, 0, .AHEAD. ) ;
#25 = PRODUCT_DEFINITION_SHAPE ( 'NONE', 'NONE',  #41 ) ;
#26 = CC_DESIGN_APPROVAL ( #116, ( #122 ) ) ;
#27 = CARTESIAN_POINT ( 'NONE',  ( 5.935518276033325126E-15, 5.000000000000000888, 1.699999999999999512 ) ) ;
#28 = CARTESIAN_POINT ( 'NONE',  ( -5.030389936349363891E-30, 1.037896043364607501E-31, -1.440760940173356912E-15 ) ) ;
#29 = ORIENTED_EDGE ( 'NONE', *, *, #132, .T. ) ;
#30 = CARTESIAN_POINT ( 'NONE',  ( -1.257597484087340798E-30, 2.594740108411518752E-32, -3.601902350433391786E-16 ) ) ;
#31 = CARTESIAN_POINT ( 'NONE',  ( 5.935518276033321182E-15, -1.224646799147351975E-16, 1.699999999999998401 ) ) ;
#32 = DATE_AND_TIME ( #99, #45 ) ;
#33 = CARTESIAN_POINT ( 'NONE',  ( 5.935518276033325915E-15, 20.00000000000000355, 1.699999999999999956 ) ) ;
#34 = DIRECTION ( 'NONE',  ( 2.696301922142129756E-31, 1.000000000000000000, 7.589415207398529805E-17 ) ) ;
#35 = APPROVAL_DATE_TIME ( #149, #120 ) ;
#36 = AXIS2_PLACEMENT_3D ( 'NONE', #19, #124, #89 ) ;
#37 = CC_DESIGN_DATE_AND_TIME_ASSIGNMENT ( #80, #126, ( #122 ) ) ;
#38 = AXIS2_PLACEMENT_3D ( 'NONE', #63, #166, #143 ) ;
#39 = PERSON_AND_ORGANIZATION_ROLE ( 'design_supplier' ) ;
#40 = APPLICATION_CONTEXT ( 'configuration controlled 3d designs of mechanical parts and assemblies' ) ;
#41 = PRODUCT_DEFINITION ( 'UNKNOWN', '', #167, #56 ) ;
#42 = ORGANIZATION ( 'UNSPECIFIED', 'UNSPECIFIED', '' ) ;
#43 = EDGE_LOOP ( 'NONE', ( #12 ) ) ;
#44 = DIRECTION ( 'NONE',  ( -3.491481338843133355E-15, 7.203804700866783572E-17, -1.000000000000000000 ) ) ;
#45 = LOCAL_TIME ( 13, 59, 51.00000000000000000, #123 ) ;
#46 = EDGE_LOOP ( 'NONE', ( #47 ) ) ;
#47 = ORIENTED_EDGE ( 'NONE', *, *, #77, .T. ) ;
#48 = CARTESIAN_POINT ( 'NONE',  ( -1.886396226131011634E-30, 5.000000000000000000, -5.402853525650089404E-16 ) ) ;
#49 = CIRCLE ( 'NONE', #109, 5.000000000000000888 ) ;
#50 = PERSON_AND_ORGANIZATION_ROLE ( 'creator' ) ;
#51 = VERTEX_POINT ( 'NONE', #53 ) ;
#52 = VERTEX_POINT ( 'NONE', #87 ) ;
#53 = CARTESIAN_POINT ( 'NONE',  ( 0.0000000000000000000, 20.00000000000000355, 0.0000000000000000000 ) ) ;
#54 = ADVANCED_FACE ( 'NONE', ( #169, #131 ), #71, .F. ) ;
#55 = SECURITY_CLASSIFICATION_LEVEL ( 'unclassified' ) ;
#56 = DESIGN_CONTEXT ( 'detailed design', #40, 'design' ) ;
#57 = LOCAL_TIME ( 13, 59, 51.00000000000000000, #92 ) ;
#58 = CC_DESIGN_PERSON_AND_ORGANIZATION_ASSIGNMENT ( #137, #60, ( #167 ) ) ;
#59 = APPROVAL_DATE_TIME ( #115, #116 ) ;
#60 = PERSON_AND_ORGANIZATION_ROLE ( 'creator' ) ;
#61 = EDGE_LOOP ( 'NONE', ( #168 ) ) ;
#62 = ORIENTED_EDGE ( 'NONE', *, *, #6, .T. ) ;
#63 = CARTESIAN_POINT ( 'NONE',  ( 0.0000000000000000000, 0.0000000000000000000, 0.0000000000000000000 ) ) ;
#64 = COORDINATED_UNIVERSAL_TIME_OFFSET ( 1, 0, .AHEAD. ) ;
#65 = APPROVAL_DATE_TIME ( #1, #153 ) ;
#66 = AXIS2_PLACEMENT_3D ( 'NONE', #27, #85, #14 ) ;
#67 = DIRECTION ( 'NONE',  ( 2.515194968174681508E-31, 1.000000000000000000, 7.203804700866783572E-17 ) ) ;
#68 = PLANE ( 'NONE',  #150 ) ;
#69 = APPLICATION_PROTOCOL_DEFINITION ( 'international standard', 'config_control_design', 1994, #88 ) ;
#70 = COORDINATED_UNIVERSAL_TIME_OFFSET ( 1, 0, .AHEAD. ) ;
#71 = CYLINDRICAL_SURFACE ( 'NONE', #38, 5.000000000000000888 ) ;
#72 = FACE_OUTER_BOUND ( 'NONE', #164, .T. ) ;
#73 = DIRECTION ( 'NONE',  ( -3.491481338843133355E-15, 7.203804700866783572E-17, -1.000000000000000000 ) ) ;
#74 = APPROVAL_STATUS ( 'not_yet_approved' ) ;
#75 =( NAMED_UNIT ( * ) PLANE_ANGLE_UNIT ( ) SI_UNIT ( $, .RADIAN. ) );
#76 = FACE_BOUND ( 'NONE', #93, .T. ) ;
#77 = EDGE_CURVE ( 'NONE', #7, #7, #157, .T. ) ;
#78 = CLOSED_SHELL ( 'NONE', ( #138, #112, #83, #54 ) ) ;
#79 = PERSON_AND_ORGANIZATION ( #81, #42 ) ;
#80 = DATE_AND_TIME ( #23, #107 ) ;
#81 = PERSON ( 'UNSPECIFIED', 'UNSPECIFIED', 'UNSPECIFIED', ('UNSPECIFIED'), ('UNSPECIFIED'), ('UNSPECIFIED') ) ;
#82 = LOCAL_TIME ( 13, 59, 51.00000000000000000, #70 ) ;
#83 = ADVANCED_FACE ( 'NONE', ( #94, #15 ), #140, .T. ) ;
#84 = MANIFOLD_SOLID_BREP ( 'Corps-Déplacer/Copier1', #78 ) ;
#85 = DIRECTION ( 'NONE',  ( 3.491481338843133355E-15, -7.203804700866783572E-17, 1.000000000000000000 ) ) ;
#86 = CC_DESIGN_PERSON_AND_ORGANIZATION_ASSIGNMENT ( #110, #50, ( #41 ) ) ;
#87 = CARTESIAN_POINT ( 'NONE',  ( 5.935518276033325915E-15, 5.000000000000000888, 1.699999999999999956 ) ) ;
#88 = APPLICATION_CONTEXT ( 'configuration controlled 3d designs of mechanical parts and assemblies' ) ;
#89 = DIRECTION ( 'NONE',  ( 1.000000000000000000, 0.0000000000000000000, 0.0000000000000000000 ) ) ;
#90 = CC_DESIGN_PERSON_AND_ORGANIZATION_ASSIGNMENT ( #163, #39, ( #167 ) ) ;
#91 = MECHANICAL_CONTEXT ( 'NONE', #88, 'mechanical' ) ;
#92 = COORDINATED_UNIVERSAL_TIME_OFFSET ( 1, 0, .AHEAD. ) ;
#93 = EDGE_LOOP ( 'NONE', ( #133 ) ) ;
#94 = FACE_BOUND ( 'NONE', #61, .T. ) ;
#95 = CARTESIAN_POINT ( 'NONE',  ( 5.935518276033325126E-15, -1.224646799147352961E-16, 1.699999999999999512 ) ) ;
#96 = APPROVAL_PERSON_ORGANIZATION ( #9, #116, #103 ) ;
#97 = DIRECTION ( 'NONE',  ( 2.515194968174681508E-31, 1.000000000000000000, 7.203804700866783572E-17 ) ) ;
#98 = CC_DESIGN_PERSON_AND_ORGANIZATION_ASSIGNMENT ( #79, #127, ( #122 ) ) ;
#99 = CALENDAR_DATE ( 2021, 6, 12 ) ;
#100 =( LENGTH_UNIT ( ) NAMED_UNIT ( * ) SI_UNIT ( .MILLI., .METRE. ) );
#101 = AXIS2_PLACEMENT_3D ( 'NONE', #31, #108, #34 ) ;
#102 = PERSON_AND_ORGANIZATION ( #81, #42 ) ;
#103 = APPROVAL_ROLE ( '' ) ;
#104 = PRODUCT_RELATED_PRODUCT_CATEGORY ( 'detail', '', ( #105 ) ) ;
#105 = PRODUCT ( '6170', '6170', '', ( #91 ) ) ;
#106 = DIRECTION ( 'NONE',  ( 2.515194968174681508E-31, 1.000000000000000000, 7.203804700866783572E-17 ) ) ;
#107 = LOCAL_TIME ( 13, 59, 51.00000000000000000, #24 ) ;
#108 = DIRECTION ( 'NONE',  ( -3.491481338843133355E-15, 7.203804700866783572E-17, -1.000000000000000000 ) ) ;
#109 = AXIS2_PLACEMENT_3D ( 'NONE', #95, #73, #139 ) ;
#110 = PERSON_AND_ORGANIZATION ( #81, #42 ) ;
#111 = PERSON_AND_ORGANIZATION ( #81, #42 ) ;
#112 = ADVANCED_FACE ( 'NONE', ( #72, #146 ), #5, .T. ) ;
#113 = UNCERTAINTY_MEASURE_WITH_UNIT (LENGTH_MEASURE( 1.000000000000000082E-05 ), #100, 'distance_accuracy_value', 'NONE');
#114 = APPLICATION_PROTOCOL_DEFINITION ( 'international standard', 'config_control_design', 1994, #40 ) ;
#115 = DATE_AND_TIME ( #125, #57 ) ;
#116 = APPROVAL ( #117, 'UNSPECIFIED' ) ;
#117 = APPROVAL_STATUS ( 'not_yet_approved' ) ;
#118 = DIRECTION ( 'NONE',  ( -3.491481338843133355E-15, 7.203804700866783572E-17, -1.000000000000000000 ) ) ;
#119 = DIRECTION ( 'NONE',  ( 2.515194968174681508E-31, 1.000000000000000000, 7.203804700866783572E-17 ) ) ;
#120 = APPROVAL ( #158, 'UNSPECIFIED' ) ;
#121 = APPROVAL_ROLE ( '' ) ;
#122 = SECURITY_CLASSIFICATION ( '', '', #55 ) ;
#123 = COORDINATED_UNIVERSAL_TIME_OFFSET ( 1, 0, .AHEAD. ) ;
#124 = DIRECTION ( 'NONE',  ( 0.0000000000000000000, 0.0000000000000000000, 1.000000000000000000 ) ) ;
#125 = CALENDAR_DATE ( 2021, 6, 12 ) ;
#126 = DATE_TIME_ROLE ( 'classification_date' ) ;
#127 = PERSON_AND_ORGANIZATION_ROLE ( 'classification_officer' ) ;
#128 = EDGE_LOOP ( 'NONE', ( #141 ) ) ;
#129 = AXIS2_PLACEMENT_3D ( 'NONE', #30, #44, #106 ) ;
#130 = EDGE_LOOP ( 'NONE', ( #62 ) ) ;
#131 = FACE_OUTER_BOUND ( 'NONE', #128, .T. ) ;
#132 = EDGE_CURVE ( 'NONE', #145, #145, #3, .T. ) ;
#133 = ORIENTED_EDGE ( 'NONE', *, *, #77, .F. ) ;
#134 = CC_DESIGN_SECURITY_CLASSIFICATION ( #122, ( #167 ) ) ;
#135 = CARTESIAN_POINT ( 'NONE',  ( 0.0000000000000000000, 0.0000000000000000000, 0.0000000000000000000 ) ) ;
#136 = SHAPE_DEFINITION_REPRESENTATION ( #25, #151 ) ;
#137 = PERSON_AND_ORGANIZATION ( #81, #42 ) ;
#138 = ADVANCED_FACE ( 'NONE', ( #156, #76 ), #68, .T. ) ;
#139 = DIRECTION ( 'NONE',  ( 3.081487911019576927E-31, 1.000000000000000000, 8.673617379884034239E-17 ) ) ;
#140 = PLANE ( 'NONE',  #66 ) ;
#141 = ORIENTED_EDGE ( 'NONE', *, *, #18, .F. ) ;
#142 = CC_DESIGN_DATE_AND_TIME_ASSIGNMENT ( #32, #4, ( #41 ) ) ;
#143 = DIRECTION ( 'NONE',  ( 2.515194968174681508E-31, 1.000000000000000000, 7.203804700866783572E-17 ) ) ;
#144 = CC_DESIGN_APPROVAL ( #120, ( #167 ) ) ;
#145 = VERTEX_POINT ( 'NONE', #33 ) ;
#146 = FACE_OUTER_BOUND ( 'NONE', #43, .T. ) ;
#147 = PERSON_AND_ORGANIZATION_ROLE ( 'design_owner' ) ;
#148 = CC_DESIGN_PERSON_AND_ORGANIZATION_ASSIGNMENT ( #102, #147, ( #105 ) ) ;
#149 = DATE_AND_TIME ( #22, #82 ) ;
#150 = AXIS2_PLACEMENT_3D ( 'NONE', #48, #17, #97 ) ;
#151 = ADVANCED_BREP_SHAPE_REPRESENTATION ( '6170', ( #84, #36 ), #152 ) ;
#152 =( GEOMETRIC_REPRESENTATION_CONTEXT ( 3 ) GLOBAL_UNCERTAINTY_ASSIGNED_CONTEXT ( ( #113 ) ) GLOBAL_UNIT_ASSIGNED_CONTEXT ( ( #100, #75, #16 ) ) REPRESENTATION_CONTEXT ( 'NONE', 'WORKASPACE' ) );
#153 = APPROVAL ( #74, 'UNSPECIFIED' ) ;
#154 = ORIENTED_EDGE ( 'NONE', *, *, #132, .F. ) ;
#155 = EDGE_LOOP ( 'NONE', ( #154 ) ) ;
#156 = FACE_OUTER_BOUND ( 'NONE', #130, .T. ) ;
#157 = CIRCLE ( 'NONE', #129, 5.000000000000000000 ) ;
#158 = APPROVAL_STATUS ( 'not_yet_approved' ) ;
#159 = DIRECTION ( 'NONE',  ( -3.491481338843133355E-15, 7.203804700866783572E-17, -1.000000000000000000 ) ) ;
#160 = APPROVAL_PERSON_ORGANIZATION ( #20, #153, #121 ) ;
#161 = CARTESIAN_POINT ( 'NONE',  ( 0.0000000000000000000, 5.000000000000000000, 0.0000000000000000000 ) ) ;
#162 = APPROVAL_ROLE ( '' ) ;
#163 = PERSON_AND_ORGANIZATION ( #81, #42 ) ;
#164 = EDGE_LOOP ( 'NONE', ( #29 ) ) ;
#165 = CIRCLE ( 'NONE', #13, 20.00000000000000355 ) ;
#166 = DIRECTION ( 'NONE',  ( -3.491481338843133355E-15, 7.203804700866783572E-17, -1.000000000000000000 ) ) ;
#167 = PRODUCT_DEFINITION_FORMATION_WITH_SPECIFIED_SOURCE ( 'ANY', '', #105, .NOT_KNOWN. ) ;
#168 = ORIENTED_EDGE ( 'NONE', *, *, #18, .T. ) ;
#169 = FACE_OUTER_BOUND ( 'NONE', #46, .T. ) ;
ENDSEC;
END-ISO-10303-21;
