ISO-10303-21;
HEADER;
FILE_DESCRIPTION (( 'STEP AP203' ),
    '1' );
FILE_NAME ('617.step',
    '2021-12-06T12:59:51',
    ( '' ),
    ( '' ),
    'SwSTEP 2.0',
    'SolidWorks 2019',
    '' );
FILE_SCHEMA (( 'CONFIG_CONTROL_DESIGN' ));
ENDSEC;

DATA;
#1 = APPROVAL_ROLE ( '' ) ;
#2 = LOCAL_TIME ( 13, 59, 51.00000000000000000, #63 ) ;
#3 = APPROVAL_STATUS ( 'not_yet_approved' ) ;
#4 = CC_DESIGN_PERSON_AND_ORGANIZATION_ASSIGNMENT ( #55, #144, ( #107 ) ) ;
#5 = DIRECTION ( 'NONE',  ( -3.491481338843133355E-15, 6.123233995736770227E-16, -1.000000000000000000 ) ) ;
#6 = AXIS2_PLACEMENT_3D ( 'NONE', #111, #153, #103 ) ;
#7 = ADVANCED_FACE ( 'NONE', ( #151, #98 ), #34, .F. ) ;
#8 = FACE_BOUND ( 'NONE', #47, .T. ) ;
#9 = PERSON_AND_ORGANIZATION_ROLE ( 'creator' ) ;
#10 = VERTEX_POINT ( 'NONE', #142 ) ;
#11 = APPROVAL_STATUS ( 'not_yet_approved' ) ;
#12 = CARTESIAN_POINT ( 'NONE',  ( 2.736911063134408342E-45, 10.00000000000000000, 0.0000000000000000000 ) ) ;
#13 = APPLICATION_PROTOCOL_DEFINITION ( 'international standard', 'config_control_design', 1994, #118 ) ;
#14 = CALENDAR_DATE ( 2021, 6, 12 ) ;
#15 = COORDINATED_UNIVERSAL_TIME_OFFSET ( 1, 0, .AHEAD. ) ;
#16 = COORDINATED_UNIVERSAL_TIME_OFFSET ( 1, 0, .AHEAD. ) ;
#17 = DIRECTION ( 'NONE',  ( -2.137915722948480880E-30, -1.000000000000000000, -6.123233995736770227E-16 ) ) ;
#18 = APPROVAL ( #3, 'UNSPECIFIED' ) ;
#19 = EDGE_LOOP ( 'NONE', ( #95 ) ) ;
#20 = FACE_OUTER_BOUND ( 'NONE', #134, .T. ) ;
#21 = APPROVAL_PERSON_ORGANIZATION ( #75, #119, #100 ) ;
#22 = FACE_OUTER_BOUND ( 'NONE', #33, .T. ) ;
#23 = DIRECTION ( 'NONE',  ( -3.491481338843133355E-15, 6.123233995736770227E-16, -1.000000000000000000 ) ) ;
#24 = APPROVAL ( #138, 'UNSPECIFIED' ) ;
#25 = LOCAL_TIME ( 13, 59, 51.00000000000000000, #16 ) ;
#26 = PERSON_AND_ORGANIZATION_ROLE ( 'design_owner' ) ;
#27 = ADVANCED_FACE ( 'NONE', ( #20, #22 ), #150, .T. ) ;
#28 = SHAPE_DEFINITION_REPRESENTATION ( #96, #83 ) ;
#29 = UNCERTAINTY_MEASURE_WITH_UNIT (LENGTH_MEASURE( 1.000000000000000082E-05 ), #60, 'distance_accuracy_value', 'NONE');
#30 = AXIS2_PLACEMENT_3D ( 'NONE', #110, #23, #141 ) ;
#31 = DIRECTION ( 'NONE',  ( 2.137915722948480880E-30, 1.000000000000000000, 6.123233995736770227E-16 ) ) ;
#32 = CC_DESIGN_PERSON_AND_ORGANIZATION_ASSIGNMENT ( #169, #26, ( #121 ) ) ;
#33 = EDGE_LOOP ( 'NONE', ( #93 ) ) ;
#34 = CYLINDRICAL_SURFACE ( 'NONE', #136, 2.500000000000000000 ) ;
#35 = PRODUCT_RELATED_PRODUCT_CATEGORY ( 'detail', '', ( #121 ) ) ;
#36 = CLOSED_SHELL ( 'NONE', ( #92, #27, #80, #7 ) ) ;
#37 = DATE_TIME_ROLE ( 'creation_date' ) ;
#38 = CARTESIAN_POINT ( 'NONE',  ( 0.0000000000000000000, 0.0000000000000000000, 0.0000000000000000000 ) ) ;
#39 = DATE_AND_TIME ( #165, #2 ) ;
#40 =( GEOMETRIC_REPRESENTATION_CONTEXT ( 3 ) GLOBAL_UNCERTAINTY_ASSIGNED_CONTEXT ( ( #29 ) ) GLOBAL_UNIT_ASSIGNED_CONTEXT ( ( #60, #59, #101 ) ) REPRESENTATION_CONTEXT ( 'NONE', 'WORKASPACE' ) );
#41 = VERTEX_POINT ( 'NONE', #12 ) ;
#42 = PERSON_AND_ORGANIZATION ( #44, #70 ) ;
#43 = CIRCLE ( 'NONE', #45, 2.499999999999999556 ) ;
#44 = PERSON ( 'UNSPECIFIED', 'UNSPECIFIED', 'UNSPECIFIED', ('UNSPECIFIED'), ('UNSPECIFIED'), ('UNSPECIFIED') ) ;
#45 = AXIS2_PLACEMENT_3D ( 'NONE', #168, #167, #51 ) ;
#46 = ORIENTED_EDGE ( 'NONE', *, *, #50, .F. ) ;
#47 = EDGE_LOOP ( 'NONE', ( #97 ) ) ;
#48 = VERTEX_POINT ( 'NONE', #123 ) ;
#49 = DIRECTION ( 'NONE',  ( 2.137782238269831797E-30, 1.000000000000000000, 6.125742274543100052E-16 ) ) ;
#50 = EDGE_CURVE ( 'NONE', #10, #10, #112, .T. ) ;
#51 = DIRECTION ( 'NONE',  ( 2.157041537713704506E-30, 1.000000000000000000, 6.071532165918825817E-16 ) ) ;
#52 = CC_DESIGN_SECURITY_CLASSIFICATION ( #107, ( #149 ) ) ;
#53 = CC_DESIGN_PERSON_AND_ORGANIZATION_ASSIGNMENT ( #90, #9, ( #129 ) ) ;
#54 = DATE_AND_TIME ( #14, #25 ) ;
#55 = PERSON_AND_ORGANIZATION ( #44, #70 ) ;
#56 = AXIS2_PLACEMENT_3D ( 'NONE', #71, #5, #31 ) ;
#57 = AXIS2_PLACEMENT_3D ( 'NONE', #38, #124, #156 ) ;
#58 = FACE_OUTER_BOUND ( 'NONE', #19, .T. ) ;
#59 =( NAMED_UNIT ( * ) PLANE_ANGLE_UNIT ( ) SI_UNIT ( $, .RADIAN. ) );
#60 =( LENGTH_UNIT ( ) NAMED_UNIT ( * ) SI_UNIT ( .MILLI., .METRE. ) );
#61 = COORDINATED_UNIVERSAL_TIME_OFFSET ( 1, 0, .AHEAD. ) ;
#62 = CC_DESIGN_DATE_AND_TIME_ASSIGNMENT ( #139, #37, ( #129 ) ) ;
#63 = COORDINATED_UNIVERSAL_TIME_OFFSET ( 1, 0, .AHEAD. ) ;
#64 = DATE_AND_TIME ( #81, #131 ) ;
#65 = CC_DESIGN_PERSON_AND_ORGANIZATION_ASSIGNMENT ( #42, #158, ( #149 ) ) ;
#66 = FACE_OUTER_BOUND ( 'NONE', #85, .T. ) ;
#67 = ORIENTED_EDGE ( 'NONE', *, *, #94, .T. ) ;
#68 = MANIFOLD_SOLID_BREP ( 'Corps-Déplacer/Copier1', #36 ) ;
#69 = DIRECTION ( 'NONE',  ( 2.137915722948480880E-30, 1.000000000000000000, 6.123233995736770227E-16 ) ) ;
#70 = ORGANIZATION ( 'UNSPECIFIED', 'UNSPECIFIED', '' ) ;
#71 = CARTESIAN_POINT ( 'NONE',  ( -5.344789307371203075E-30, 9.373498641636625266E-31, -1.530808498934192902E-15 ) ) ;
#72 = DIRECTION ( 'NONE',  ( -3.491481338843133355E-15, 6.123233995736770227E-16, -1.000000000000000000 ) ) ;
#73 = FACE_BOUND ( 'NONE', #87, .T. ) ;
#74 = PERSON_AND_ORGANIZATION ( #44, #70 ) ;
#75 = PERSON_AND_ORGANIZATION ( #44, #70 ) ;
#76 = LOCAL_TIME ( 13, 59, 51.00000000000000000, #61 ) ;
#77 = CARTESIAN_POINT ( 'NONE',  ( 6.982962677686261780E-16, 10.00000000000000000, 0.1999999999999998723 ) ) ;
#78 = AXIS2_PLACEMENT_3D ( 'NONE', #148, #135, #69 ) ;
#79 = SECURITY_CLASSIFICATION_LEVEL ( 'unclassified' ) ;
#80 = ADVANCED_FACE ( 'NONE', ( #8, #58 ), #109, .T. ) ;
#81 = CALENDAR_DATE ( 2021, 6, 12 ) ;
#82 = CARTESIAN_POINT ( 'NONE',  ( 6.982962677686181908E-16, 2.499999999999999556, 0.1999999999999975686 ) ) ;
#83 = ADVANCED_BREP_SHAPE_REPRESENTATION ( '617', ( #68, #57 ), #40 ) ;
#84 = APPLICATION_CONTEXT ( 'configuration controlled 3d designs of mechanical parts and assemblies' ) ;
#85 = EDGE_LOOP ( 'NONE', ( #67 ) ) ;
#86 = EDGE_LOOP ( 'NONE', ( #164 ) ) ;
#87 = EDGE_LOOP ( 'NONE', ( #46 ) ) ;
#88 = PLANE ( 'NONE',  #6 ) ;
#89 = MECHANICAL_CONTEXT ( 'NONE', #84, 'mechanical' ) ;
#90 = PERSON_AND_ORGANIZATION ( #44, #70 ) ;
#91 = PERSON_AND_ORGANIZATION ( #44, #70 ) ;
#92 = ADVANCED_FACE ( 'NONE', ( #66, #73 ), #88, .T. ) ;
#93 = ORIENTED_EDGE ( 'NONE', *, *, #94, .F. ) ;
#94 = EDGE_CURVE ( 'NONE', #41, #41, #162, .T. ) ;
#95 = ORIENTED_EDGE ( 'NONE', *, *, #166, .F. ) ;
#96 = PRODUCT_DEFINITION_SHAPE ( 'NONE', 'NONE',  #129 ) ;
#97 = ORIENTED_EDGE ( 'NONE', *, *, #160, .T. ) ;
#98 = FACE_OUTER_BOUND ( 'NONE', #86, .T. ) ;
#99 = APPROVAL_DATE_TIME ( #39, #119 ) ;
#100 = APPROVAL_ROLE ( '' ) ;
#101 =( NAMED_UNIT ( * ) SI_UNIT ( $, .STERADIAN. ) SOLID_ANGLE_UNIT ( ) );
#102 = APPROVAL_PERSON_ORGANIZATION ( #117, #18, #1 ) ;
#103 = DIRECTION ( 'NONE',  ( 2.137915722948480880E-30, 1.000000000000000000, 6.123233995736770227E-16 ) ) ;
#104 = APPROVAL_DATE_TIME ( #114, #18 ) ;
#105 = DESIGN_CONTEXT ( 'detailed design', #118, 'design' ) ;
#106 = PERSON_AND_ORGANIZATION_ROLE ( 'design_supplier' ) ;
#107 = SECURITY_CLASSIFICATION ( '', '', #79 ) ;
#108 = EDGE_LOOP ( 'NONE', ( #161 ) ) ;
#109 = PLANE ( 'NONE',  #152 ) ;
#110 = CARTESIAN_POINT ( 'NONE',  ( -2.137915722948480670E-29, 3.749399456654649406E-30, -6.123233995736770029E-15 ) ) ;
#111 = CARTESIAN_POINT ( 'NONE',  ( -8.017183961056801460E-30, 2.500000000000000444, -2.296212748401288761E-15 ) ) ;
#112 = CIRCLE ( 'NONE', #56, 2.500000000000000444 ) ;
#113 = APPROVAL_PERSON_ORGANIZATION ( #74, #24, #130 ) ;
#114 = DATE_AND_TIME ( #132, #155 ) ;
#115 = AXIS2_PLACEMENT_3D ( 'NONE', #157, #154, #49 ) ;
#116 = DATE_TIME_ROLE ( 'classification_date' ) ;
#117 = PERSON_AND_ORGANIZATION ( #44, #70 ) ;
#118 = APPLICATION_CONTEXT ( 'configuration controlled 3d designs of mechanical parts and assemblies' ) ;
#119 = APPROVAL ( #11, 'UNSPECIFIED' ) ;
#120 = DIRECTION ( 'NONE',  ( 2.137915722948480880E-30, 1.000000000000000000, 6.123233995736770227E-16 ) ) ;
#121 = PRODUCT ( '617', '617', '', ( #89 ) ) ;
#122 = CC_DESIGN_APPROVAL ( #18, ( #107 ) ) ;
#123 = CARTESIAN_POINT ( 'NONE',  ( 6.982962677686263752E-16, 2.499999999999999556, 0.1999999999999998723 ) ) ;
#124 = DIRECTION ( 'NONE',  ( 0.0000000000000000000, 0.0000000000000000000, 1.000000000000000000 ) ) ;
#125 = VERTEX_POINT ( 'NONE', #77 ) ;
#126 = CALENDAR_DATE ( 2021, 6, 12 ) ;
#127 = CIRCLE ( 'NONE', #115, 10.00000000000000000 ) ;
#128 = APPLICATION_PROTOCOL_DEFINITION ( 'international standard', 'config_control_design', 1994, #84 ) ;
#129 = PRODUCT_DEFINITION ( 'UNKNOWN', '', #149, #105 ) ;
#130 = APPROVAL_ROLE ( '' ) ;
#131 = LOCAL_TIME ( 13, 59, 51.00000000000000000, #15 ) ;
#132 = CALENDAR_DATE ( 2021, 6, 12 ) ;
#133 = DIRECTION ( 'NONE',  ( 3.491481338843133355E-15, -6.123233995736770227E-16, 1.000000000000000000 ) ) ;
#134 = EDGE_LOOP ( 'NONE', ( #163 ) ) ;
#135 = DIRECTION ( 'NONE',  ( -3.491481338843133355E-15, 6.123233995736770227E-16, -1.000000000000000000 ) ) ;
#136 = AXIS2_PLACEMENT_3D ( 'NONE', #137, #72, #120 ) ;
#137 = CARTESIAN_POINT ( 'NONE',  ( 0.0000000000000000000, 0.0000000000000000000, 0.0000000000000000000 ) ) ;
#138 = APPROVAL_STATUS ( 'not_yet_approved' ) ;
#139 = DATE_AND_TIME ( #126, #76 ) ;
#140 = CC_DESIGN_APPROVAL ( #24, ( #149 ) ) ;
#141 = DIRECTION ( 'NONE',  ( 2.137915722948480880E-30, 1.000000000000000000, 6.123233995736770227E-16 ) ) ;
#142 = CARTESIAN_POINT ( 'NONE',  ( 0.0000000000000000000, 2.500000000000000444, 0.0000000000000000000 ) ) ;
#143 = CC_DESIGN_DATE_AND_TIME_ASSIGNMENT ( #64, #116, ( #107 ) ) ;
#144 = PERSON_AND_ORGANIZATION_ROLE ( 'classification_officer' ) ;
#145 = CC_DESIGN_PERSON_AND_ORGANIZATION_ASSIGNMENT ( #91, #106, ( #149 ) ) ;
#146 = COORDINATED_UNIVERSAL_TIME_OFFSET ( 1, 0, .AHEAD. ) ;
#147 = CC_DESIGN_APPROVAL ( #119, ( #129 ) ) ;
#148 = CARTESIAN_POINT ( 'NONE',  ( 0.0000000000000000000, 0.0000000000000000000, 0.0000000000000000000 ) ) ;
#149 = PRODUCT_DEFINITION_FORMATION_WITH_SPECIFIED_SOURCE ( 'ANY', '', #121, .NOT_KNOWN. ) ;
#150 = CYLINDRICAL_SURFACE ( 'NONE', #78, 10.00000000000000000 ) ;
#151 = FACE_OUTER_BOUND ( 'NONE', #108, .T. ) ;
#152 = AXIS2_PLACEMENT_3D ( 'NONE', #82, #133, #17 ) ;
#153 = DIRECTION ( 'NONE',  ( -3.491481338843133355E-15, 6.123233995736770227E-16, -1.000000000000000000 ) ) ;
#154 = DIRECTION ( 'NONE',  ( -3.491481338843133355E-15, 6.123233995736770227E-16, -1.000000000000000000 ) ) ;
#155 = LOCAL_TIME ( 13, 59, 51.00000000000000000, #146 ) ;
#156 = DIRECTION ( 'NONE',  ( 1.000000000000000000, 0.0000000000000000000, 0.0000000000000000000 ) ) ;
#157 = CARTESIAN_POINT ( 'NONE',  ( 6.982962677686047802E-16, -1.224646799147315736E-16, 0.1999999999999937383 ) ) ;
#158 = PERSON_AND_ORGANIZATION_ROLE ( 'creator' ) ;
#159 = APPROVAL_DATE_TIME ( #54, #24 ) ;
#160 = EDGE_CURVE ( 'NONE', #48, #48, #43, .T. ) ;
#161 = ORIENTED_EDGE ( 'NONE', *, *, #50, .T. ) ;
#162 = CIRCLE ( 'NONE', #30, 10.00000000000000000 ) ;
#163 = ORIENTED_EDGE ( 'NONE', *, *, #166, .T. ) ;
#164 = ORIENTED_EDGE ( 'NONE', *, *, #160, .F. ) ;
#165 = CALENDAR_DATE ( 2021, 6, 12 ) ;
#166 = EDGE_CURVE ( 'NONE', #125, #125, #127, .T. ) ;
#167 = DIRECTION ( 'NONE',  ( -3.491481338843133355E-15, 6.123233995736770227E-16, -1.000000000000000000 ) ) ;
#168 = CARTESIAN_POINT ( 'NONE',  ( 6.982962677686209518E-16, -1.224646799147344086E-16, 0.1999999999999983458 ) ) ;
#169 = PERSON_AND_ORGANIZATION ( #44, #70 ) ;
ENDSEC;
END-ISO-10303-21;
