ISO-10303-21;
HEADER;
FILE_DESCRIPTION (( 'STEP AP203' ),
    '1' );
FILE_NAME ('61616.step',
    '2021-11-09T08:46:34',
    ( '' ),
    ( '' ),
    'SwSTEP 2.0',
    'SolidWorks 2019',
    '' );
FILE_SCHEMA (( 'CONFIG_CONTROL_DESIGN' ));
ENDSEC;

DATA;
#1 = EDGE_LOOP ( 'NONE', ( #129 ) ) ;
#2 = FACE_OUTER_BOUND ( 'NONE', #122, .T. ) ;
#3 = ADVANCED_FACE ( 'NONE', ( #29 ), #73, .T. ) ;
#4 = DIRECTION ( 'NONE',  ( -4.275831445896958607E-31, -1.000000000000000000, -1.224646799147353207E-16 ) ) ;
#5 = AXIS2_PLACEMENT_3D ( 'NONE', #96, #15, #79 ) ;
#6 = FACE_OUTER_BOUND ( 'NONE', #126, .T. ) ;
#7 = DATE_AND_TIME ( #71, #91 ) ;
#8 = ORIENTED_EDGE ( 'NONE', *, *, #78, .T. ) ;
#9 = COORDINATED_UNIVERSAL_TIME_OFFSET ( 1, 0, .AHEAD. ) ;
#10 = AXIS2_PLACEMENT_3D ( 'NONE', #160, #57, #38 ) ;
#11 = DIRECTION ( 'NONE',  ( 0.0000000000000000000, 1.000000000000000000, 0.0000000000000000000 ) ) ;
#12 = PERSON_AND_ORGANIZATION_ROLE ( 'creator' ) ;
#13 = ADVANCED_FACE ( 'NONE', ( #6, #127 ), #18, .T. ) ;
#14 = FACE_OUTER_BOUND ( 'NONE', #1, .T. ) ;
#15 = DIRECTION ( 'NONE',  ( 0.0000000000000000000, 0.0000000000000000000, 1.000000000000000000 ) ) ;
#16 = DIRECTION ( 'NONE',  ( -4.275831445896958607E-31, -1.000000000000000000, -1.224646799147353207E-16 ) ) ;
#17 = CC_DESIGN_APPROVAL ( #59, ( #58 ) ) ;
#18 = CYLINDRICAL_SURFACE ( 'NONE', #81, 0.9999999999999978906 ) ;
#19 = EDGE_CURVE ( 'NONE', #55, #55, #87, .T. ) ;
#20 = DIRECTION ( 'NONE',  ( -3.491481338843133355E-15, 1.224646799147353207E-16, -1.000000000000000000 ) ) ;
#21 = FACE_OUTER_BOUND ( 'NONE', #223, .T. ) ;
#22 = PERSON_AND_ORGANIZATION_ROLE ( 'design_supplier' ) ;
#23 = CARTESIAN_POINT ( 'NONE',  ( 1.117274028429802674E-13, 0.6999999999999952927, 32.00000000000000000 ) ) ;
#24 = DIRECTION ( 'NONE',  ( -3.491481338843133355E-15, 1.224646799147353207E-16, -1.000000000000000000 ) ) ;
#25 = AXIS2_PLACEMENT_3D ( 'NONE', #212, #177, #53 ) ;
#26 = EDGE_CURVE ( 'NONE', #193, #193, #217, .T. ) ;
#27 = COORDINATED_UNIVERSAL_TIME_OFFSET ( 1, 0, .AHEAD. ) ;
#28 = CC_DESIGN_APPROVAL ( #137, ( #82 ) ) ;
#29 = FACE_OUTER_BOUND ( 'NONE', #206, .T. ) ;
#30 = DIRECTION ( 'NONE',  ( 3.491481338843133355E-15, -1.235943513693574240E-16, 1.000000000000000000 ) ) ;
#31 = DIRECTION ( 'NONE',  ( 0.0000000000000000000, -1.000000000000000000, 0.0000000000000000000 ) ) ;
#32 = FACE_OUTER_BOUND ( 'NONE', #203, .T. ) ;
#33 = APPROVAL_DATE_TIME ( #214, #137 ) ;
#34 = APPROVAL_DATE_TIME ( #56, #59 ) ;
#35 = CARTESIAN_POINT ( 'NONE',  ( 1.009794459431682995E-31, -0.7499999999999954481, 2.892166279675055198E-17 ) ) ;
#36 = PERSON_AND_ORGANIZATION ( #43, #186 ) ;
#37 = APPROVAL_STATUS ( 'not_yet_approved' ) ;
#38 = DIRECTION ( 'NONE',  ( -4.275831445896958607E-31, -1.000000000000000000, -1.224646799147353207E-16 ) ) ;
#39 = AXIS2_PLACEMENT_3D ( 'NONE', #190, #124, #31 ) ;
#40 = DIRECTION ( 'NONE',  ( -4.315273713925326938E-31, -1.000000000000000000, -1.235943513693574240E-16 ) ) ;
#41 = ADVANCED_FACE ( 'NONE', ( #142 ), #101, .F. ) ;
#42 = MANIFOLD_SOLID_BREP ( 'Corps-Déplacer/Copier1[2]', #103 ) ;
#43 = PERSON ( 'UNSPECIFIED', 'UNSPECIFIED', 'UNSPECIFIED', ('UNSPECIFIED'), ('UNSPECIFIED'), ('UNSPECIFIED') ) ;
#44 = ORIENTED_EDGE ( 'NONE', *, *, #187, .T. ) ;
#45 = CC_DESIGN_PERSON_AND_ORGANIZATION_ASSIGNMENT ( #194, #172, ( #82 ) ) ;
#46 = ORIENTED_EDGE ( 'NONE', *, *, #26, .F. ) ;
#47 = ORIENTED_EDGE ( 'NONE', *, *, #80, .T. ) ;
#48 = EDGE_LOOP ( 'NONE', ( #44 ) ) ;
#49 = PRODUCT_RELATED_PRODUCT_CATEGORY ( 'detail', '', ( #143 ) ) ;
#50 = ORIENTED_EDGE ( 'NONE', *, *, #19, .F. ) ;
#51 = DIRECTION ( 'NONE',  ( 3.491481338843133355E-15, -1.224646799147353207E-16, 1.000000000000000000 ) ) ;
#52 = APPROVAL_ROLE ( '' ) ;
#53 = DIRECTION ( 'NONE',  ( 0.0000000000000000000, -1.000000000000000000, 0.0000000000000000000 ) ) ;
#54 = PERSON_AND_ORGANIZATION ( #43, #186 ) ;
#55 = VERTEX_POINT ( 'NONE', #134 ) ;
#56 = DATE_AND_TIME ( #112, #110 ) ;
#57 = DIRECTION ( 'NONE',  ( 3.491481338843133355E-15, -1.224646799147353207E-16, 1.000000000000000000 ) ) ;
#58 = SECURITY_CLASSIFICATION ( '', '', #74 ) ;
#59 = APPROVAL ( #37, 'UNSPECIFIED' ) ;
#60 = CC_DESIGN_DATE_AND_TIME_ASSIGNMENT ( #159, #133, ( #58 ) ) ;
#61 = AXIS2_PLACEMENT_3D ( 'NONE', #89, #156, #105 ) ;
#62 = CC_DESIGN_DATE_AND_TIME_ASSIGNMENT ( #7, #144, ( #166 ) ) ;
#63 = ORIENTED_EDGE ( 'NONE', *, *, #155, .T. ) ;
#64 = EDGE_LOOP ( 'NONE', ( #208 ) ) ;
#65 = FACE_BOUND ( 'NONE', #48, .T. ) ;
#66 = CC_DESIGN_PERSON_AND_ORGANIZATION_ASSIGNMENT ( #54, #12, ( #166 ) ) ;
#67 = CONICAL_SURFACE ( 'NONE', #61, 0.6999999999999992895, 0.7853981633974569387 ) ;
#68 = DIRECTION ( 'NONE',  ( 3.491481338843133355E-15, -1.235943513693574240E-16, 1.000000000000000000 ) ) ;
#69 = EDGE_LOOP ( 'NONE', ( #63 ) ) ;
#70 = CARTESIAN_POINT ( 'NONE',  ( 2.793185071074506684E-14, 7.498798913309245617E-33, 8.000000000000000000 ) ) ;
#71 = CALENDAR_DATE ( 2021, 9, 11 ) ;
#72 = CIRCLE ( 'NONE', #25, 0.7499999999999946709 ) ;
#73 = PLANE ( 'NONE',  #211 ) ;
#74 = SECURITY_CLASSIFICATION_LEVEL ( 'unclassified' ) ;
#75 = VERTEX_POINT ( 'NONE', #23 ) ;
#76 = SHAPE_DEFINITION_REPRESENTATION ( #131, #221 ) ;
#77 = CARTESIAN_POINT ( 'NONE',  ( -4.275743254511121536E-31, 0.0000000000000000000, -1.224621540130541035E-16 ) ) ;
#78 = EDGE_CURVE ( 'NONE', #148, #148, #163, .T. ) ;
#79 = DIRECTION ( 'NONE',  ( 1.000000000000000000, 0.0000000000000000000, 0.0000000000000000000 ) ) ;
#80 = EDGE_CURVE ( 'NONE', #195, #195, #100, .T. ) ;
#81 = AXIS2_PLACEMENT_3D ( 'NONE', #189, #88, #202 ) ;
#82 = PRODUCT_DEFINITION_FORMATION_WITH_SPECIFIED_SOURCE ( 'ANY', '', #143, .NOT_KNOWN. ) ;
#83 = DIRECTION ( 'NONE',  ( -4.315273713925326938E-31, -1.000000000000000000, -1.235943513693574240E-16 ) ) ;
#84 = CC_DESIGN_PERSON_AND_ORGANIZATION_ASSIGNMENT ( #199, #151, ( #143 ) ) ;
#85 = DIRECTION ( 'NONE',  ( 3.491481338843133355E-15, -1.224646799147353207E-16, 1.000000000000000000 ) ) ;
#86 = AXIS2_PLACEMENT_3D ( 'NONE', #145, #24, #178 ) ;
#87 = CIRCLE ( 'NONE', #39, 0.9999999999999986677 ) ;
#88 = DIRECTION ( 'NONE',  ( -3.491481338843133355E-15, 1.224646799147353207E-16, -1.000000000000000000 ) ) ;
#89 = CARTESIAN_POINT ( 'NONE',  ( 1.117274028429802674E-13, -3.918869757271530263E-15, 32.00000000000000000 ) ) ;
#90 = APPROVAL_STATUS ( 'not_yet_approved' ) ;
#91 = LOCAL_TIME ( 9, 46, 34.00000000000000000, #192 ) ;
#92 = PLANE ( 'NONE',  #10 ) ;
#93 = CYLINDRICAL_SURFACE ( 'NONE', #125, 0.7499999999999950040 ) ;
#94 = APPLICATION_CONTEXT ( 'configuration controlled 3d designs of mechanical parts and assemblies' ) ;
#95 = ADVANCED_FACE ( 'NONE', ( #32, #65 ), #67, .T. ) ;
#96 = CARTESIAN_POINT ( 'NONE',  ( 0.0000000000000000000, 0.0000000000000000000, 0.0000000000000000000 ) ) ;
#97 = TOROIDAL_SURFACE ( 'NONE', #218, 8.749999999999996447, 8.000000000000000000 ) ;
#98 = APPROVAL ( #180, 'UNSPECIFIED' ) ;
#99 = ORIENTED_EDGE ( 'NONE', *, *, #155, .F. ) ;
#100 = CIRCLE ( 'NONE', #128, 0.7499999999999946709 ) ;
#101 = PLANE ( 'NONE',  #176 ) ;
#102 = ORIENTED_EDGE ( 'NONE', *, *, #187, .F. ) ;
#103 = CLOSED_SHELL ( 'NONE', ( #3, #209, #161 ) ) ;
#104 = DIRECTION ( 'NONE',  ( 0.0000000000000000000, 1.000000000000000000, 0.0000000000000000000 ) ) ;
#105 = DIRECTION ( 'NONE',  ( 0.0000000000000000000, 1.000000000000000000, 0.0000000000000000000 ) ) ;
#106 = CALENDAR_DATE ( 2021, 9, 11 ) ;
#107 = CARTESIAN_POINT ( 'NONE',  ( 2.793185071074506053E-14, -0.7499999999999956701, 7.999999999999998224 ) ) ;
#108 = PERSON_AND_ORGANIZATION_ROLE ( 'classification_officer' ) ;
#109 = ADVANCED_FACE ( 'NONE', ( #171, #21 ), #97, .F. ) ;
#110 = LOCAL_TIME ( 9, 46, 34.00000000000000000, #164 ) ;
#111 = VERTEX_POINT ( 'NONE', #173 ) ;
#112 = CALENDAR_DATE ( 2021, 9, 11 ) ;
#113 = DIRECTION ( 'NONE',  ( 3.491481338843133355E-15, -1.235943513693574240E-16, 1.000000000000000000 ) ) ;
#114 = PERSON_AND_ORGANIZATION ( #43, #186 ) ;
#115 = LOCAL_TIME ( 9, 46, 34.00000000000000000, #130 ) ;
#116 = CC_DESIGN_PERSON_AND_ORGANIZATION_ASSIGNMENT ( #36, #22, ( #82 ) ) ;
#117 =( LENGTH_UNIT ( ) NAMED_UNIT ( * ) SI_UNIT ( .MILLI., .METRE. ) );
#118 = UNCERTAINTY_MEASURE_WITH_UNIT (LENGTH_MEASURE( 1.000000000000000082E-05 ), #117, 'distance_accuracy_value', 'NONE');
#119 = APPLICATION_PROTOCOL_DEFINITION ( 'international standard', 'config_control_design', 1994, #170 ) ;
#120 =( NAMED_UNIT ( * ) PLANE_ANGLE_UNIT ( ) SI_UNIT ( $, .RADIAN. ) );
#121 = APPROVAL_PERSON_ORGANIZATION ( #175, #59, #184 ) ;
#122 = EDGE_LOOP ( 'NONE', ( #102 ) ) ;
#123 = MANIFOLD_SOLID_BREP ( 'Corps-Déplacer/Copier1[1]', #162 ) ;
#124 = DIRECTION ( 'NONE',  ( 3.491481338843133355E-15, -1.235943513693574240E-16, 1.000000000000000000 ) ) ;
#125 = AXIS2_PLACEMENT_3D ( 'NONE', #77, #113, #40 ) ;
#126 = EDGE_LOOP ( 'NONE', ( #188 ) ) ;
#127 = FACE_OUTER_BOUND ( 'NONE', #64, .T. ) ;
#128 = AXIS2_PLACEMENT_3D ( 'NONE', #154, #68, #169 ) ;
#129 = ORIENTED_EDGE ( 'NONE', *, *, #80, .F. ) ;
#130 = COORDINATED_UNIVERSAL_TIME_OFFSET ( 1, 0, .AHEAD. ) ;
#131 = PRODUCT_DEFINITION_SHAPE ( 'NONE', 'NONE',  #166 ) ;
#132 = FACE_OUTER_BOUND ( 'NONE', #165, .T. ) ;
#133 = DATE_TIME_ROLE ( 'classification_date' ) ;
#134 = CARTESIAN_POINT ( 'NONE',  ( 3.486004420809644627E-14, -1.000000000000000000, 9.984313483298457470 ) ) ;
#135 = APPROVAL_PERSON_ORGANIZATION ( #210, #137, #52 ) ;
#136 = CARTESIAN_POINT ( 'NONE',  ( 1.117274028429802674E-13, -3.918869757271530263E-15, 32.00000000000000000 ) ) ;
#137 = APPROVAL ( #90, 'UNSPECIFIED' ) ;
#138 = APPLICATION_PROTOCOL_DEFINITION ( 'international standard', 'config_control_design', 1994, #94 ) ;
#139 = CARTESIAN_POINT ( 'NONE',  ( 2.793185071074506053E-14, -1.734723475976807094E-15, 7.999999999999998224 ) ) ;
#140 = APPROVAL_PERSON_ORGANIZATION ( #114, #98, #182 ) ;
#141 = EDGE_LOOP ( 'NONE', ( #8 ) ) ;
#142 = FACE_OUTER_BOUND ( 'NONE', #207, .T. ) ;
#143 = PRODUCT ( '61616', '61616', '', ( #200 ) ) ;
#144 = DATE_TIME_ROLE ( 'creation_date' ) ;
#145 = CARTESIAN_POINT ( 'NONE',  ( 1.117274028429802674E-13, 5.249159239316437310E-33, 32.00000000000000000 ) ) ;
#146 = PERSON_AND_ORGANIZATION ( #43, #186 ) ;
#147 = PLANE ( 'NONE',  #86 ) ;
#148 = VERTEX_POINT ( 'NONE', #35 ) ;
#149 = CC_DESIGN_SECURITY_CLASSIFICATION ( #58, ( #82 ) ) ;
#150 = ADVANCED_FACE ( 'NONE', ( #2 ), #147, .F. ) ;
#151 = PERSON_AND_ORGANIZATION_ROLE ( 'design_owner' ) ;
#152 = CC_DESIGN_APPROVAL ( #98, ( #166 ) ) ;
#153 = CC_DESIGN_PERSON_AND_ORGANIZATION_ASSIGNMENT ( #146, #108, ( #58 ) ) ;
#154 = CARTESIAN_POINT ( 'NONE',  ( 2.793185071074506053E-14, -9.887548109548591949E-16, 7.999999999999998224 ) ) ;
#155 = EDGE_CURVE ( 'NONE', #111, #111, #72, .T. ) ;
#156 = DIRECTION ( 'NONE',  ( -3.491481338843133355E-15, 1.224646799147353207E-16, -1.000000000000000000 ) ) ;
#157 = APPROVAL_DATE_TIME ( #174, #98 ) ;
#158 = CARTESIAN_POINT ( 'NONE',  ( 1.106799584413273463E-13, 0.9999999999999952260, 31.70000000000000639 ) ) ;
#159 = DATE_AND_TIME ( #213, #183 ) ;
#160 = CARTESIAN_POINT ( 'NONE',  ( -3.206853992084418265E-31, 1.124812964929193376E-32, -9.184794878918002484E-17 ) ) ;
#161 = ADVANCED_FACE ( 'NONE', ( #132 ), #92, .F. ) ;
#162 = CLOSED_SHELL ( 'NONE', ( #13, #95, #150, #109, #41 ) ) ;
#163 = CIRCLE ( 'NONE', #219, 0.7499999999999954481 ) ;
#164 = COORDINATED_UNIVERSAL_TIME_OFFSET ( 1, 0, .AHEAD. ) ;
#165 = EDGE_LOOP ( 'NONE', ( #201 ) ) ;
#166 = PRODUCT_DEFINITION ( 'UNKNOWN', '', #82, #181 ) ;
#167 = AXIS2_PLACEMENT_3D ( 'NONE', #191, #20, #104 ) ;
#168 = CARTESIAN_POINT ( 'NONE',  ( 2.793185071074506684E-14, 7.498798913309245617E-33, 8.000000000000000000 ) ) ;
#169 = DIRECTION ( 'NONE',  ( 0.0000000000000000000, -1.000000000000000000, 0.0000000000000000000 ) ) ;
#170 = APPLICATION_CONTEXT ( 'configuration controlled 3d designs of mechanical parts and assemblies' ) ;
#171 = FACE_OUTER_BOUND ( 'NONE', #69, .T. ) ;
#172 = PERSON_AND_ORGANIZATION_ROLE ( 'creator' ) ;
#173 = CARTESIAN_POINT ( 'NONE',  ( 2.793185071074506053E-14, -0.7499999999999956701, 7.999999999999998224 ) ) ;
#174 = DATE_AND_TIME ( #220, #222 ) ;
#175 = PERSON_AND_ORGANIZATION ( #43, #186 ) ;
#176 = AXIS2_PLACEMENT_3D ( 'NONE', #70, #85, #4 ) ;
#177 = DIRECTION ( 'NONE',  ( 3.491481338843133355E-15, -1.235943513693574240E-16, 1.000000000000000000 ) ) ;
#178 = DIRECTION ( 'NONE',  ( 4.275831445896958607E-31, 1.000000000000000000, 1.224646799147353207E-16 ) ) ;
#179 = CIRCLE ( 'NONE', #205, 0.6999999999999992895 ) ;
#180 = APPROVAL_STATUS ( 'not_yet_approved' ) ;
#181 = DESIGN_CONTEXT ( 'detailed design', #170, 'design' ) ;
#182 = APPROVAL_ROLE ( '' ) ;
#183 = LOCAL_TIME ( 9, 46, 34.00000000000000000, #9 ) ;
#184 = APPROVAL_ROLE ( '' ) ;
#185 = CARTESIAN_POINT ( 'NONE',  ( 4.246249744875658930E-31, -3.016685741423449863E-32, 1.216174263237680715E-16 ) ) ;
#186 = ORGANIZATION ( 'UNSPECIFIED', 'UNSPECIFIED', '' ) ;
#187 = EDGE_CURVE ( 'NONE', #75, #75, #179, .T. ) ;
#188 = ORIENTED_EDGE ( 'NONE', *, *, #26, .T. ) ;
#189 = CARTESIAN_POINT ( 'NONE',  ( 0.0000000000000000000, 0.0000000000000000000, 0.0000000000000000000 ) ) ;
#190 = CARTESIAN_POINT ( 'NONE',  ( 3.486004420809644627E-14, -1.234004748836602400E-15, 9.984313483298457470 ) ) ;
#191 = CARTESIAN_POINT ( 'NONE',  ( 1.106799584413273463E-13, -3.882130353297110981E-15, 31.70000000000000639 ) ) ;
#192 = COORDINATED_UNIVERSAL_TIME_OFFSET ( 1, 0, .AHEAD. ) ;
#193 = VERTEX_POINT ( 'NONE', #158 ) ;
#194 = PERSON_AND_ORGANIZATION ( #43, #186 ) ;
#195 = VERTEX_POINT ( 'NONE', #107 ) ;
#196 =( GEOMETRIC_REPRESENTATION_CONTEXT ( 3 ) GLOBAL_UNCERTAINTY_ASSIGNED_CONTEXT ( ( #118 ) ) GLOBAL_UNIT_ASSIGNED_CONTEXT ( ( #117, #120, #198 ) ) REPRESENTATION_CONTEXT ( 'NONE', 'WORKASPACE' ) );
#197 = FACE_OUTER_BOUND ( 'NONE', #141, .T. ) ;
#198 =( NAMED_UNIT ( * ) SI_UNIT ( $, .STERADIAN. ) SOLID_ANGLE_UNIT ( ) );
#199 = PERSON_AND_ORGANIZATION ( #43, #186 ) ;
#200 = MECHANICAL_CONTEXT ( 'NONE', #94, 'mechanical' ) ;
#201 = ORIENTED_EDGE ( 'NONE', *, *, #78, .F. ) ;
#202 = DIRECTION ( 'NONE',  ( 4.275831445896958607E-31, 1.000000000000000000, 1.224646799147352961E-16 ) ) ;
#203 = EDGE_LOOP ( 'NONE', ( #46 ) ) ;
#204 = DIRECTION ( 'NONE',  ( 3.491481338843133355E-15, -1.235943513693574240E-16, 1.000000000000000000 ) ) ;
#205 = AXIS2_PLACEMENT_3D ( 'NONE', #136, #215, #11 ) ;
#206 = EDGE_LOOP ( 'NONE', ( #47 ) ) ;
#207 = EDGE_LOOP ( 'NONE', ( #99 ) ) ;
#208 = ORIENTED_EDGE ( 'NONE', *, *, #19, .T. ) ;
#209 = ADVANCED_FACE ( 'NONE', ( #197, #14 ), #93, .T. ) ;
#210 = PERSON_AND_ORGANIZATION ( #43, #186 ) ;
#211 = AXIS2_PLACEMENT_3D ( 'NONE', #168, #51, #16 ) ;
#212 = CARTESIAN_POINT ( 'NONE',  ( 2.793185071074506053E-14, -9.887548109548591949E-16, 7.999999999999998224 ) ) ;
#213 = CALENDAR_DATE ( 2021, 9, 11 ) ;
#214 = DATE_AND_TIME ( #106, #115 ) ;
#215 = DIRECTION ( 'NONE',  ( -3.491481338843133355E-15, 1.224646799147353207E-16, -1.000000000000000000 ) ) ;
#216 = DIRECTION ( 'NONE',  ( -4.378689342351021642E-31, -1.000000000000000000, -1.235943513693574240E-16 ) ) ;
#217 = CIRCLE ( 'NONE', #167, 0.9999999999999991118 ) ;
#218 = AXIS2_PLACEMENT_3D ( 'NONE', #139, #204, #216 ) ;
#219 = AXIS2_PLACEMENT_3D ( 'NONE', #185, #30, #83 ) ;
#220 = CALENDAR_DATE ( 2021, 9, 11 ) ;
#221 = ADVANCED_BREP_SHAPE_REPRESENTATION ( '61616', ( #123, #42, #5 ), #196 ) ;
#222 = LOCAL_TIME ( 9, 46, 34.00000000000000000, #27 ) ;
#223 = EDGE_LOOP ( 'NONE', ( #50 ) ) ;
ENDSEC;
END-ISO-10303-21;
