ISO-10303-21;
HEADER;
FILE_DESCRIPTION (( 'STEP AP203' ),
    '1' );
FILE_NAME ('61561.step',
    '2021-09-21T07:46:55',
    ( '' ),
    ( '' ),
    'SwSTEP 2.0',
    'SolidWorks 2019',
    '' );
FILE_SCHEMA (( 'CONFIG_CONTROL_DESIGN' ));
ENDSEC;

DATA;
#1 = ORIENTED_EDGE ( 'NONE', *, *, #26, .F. ) ;
#2 = EDGE_CURVE ( 'NONE', #70, #73, #110, .T. ) ;
#3 = DESIGN_CONTEXT ( 'detailed design', #143, 'design' ) ;
#4 =( NAMED_UNIT ( * ) SI_UNIT ( $, .STERADIAN. ) SOLID_ANGLE_UNIT ( ) );
#5 = ORIENTED_EDGE ( 'NONE', *, *, #213, .F. ) ;
#6 = CONICAL_SURFACE ( 'NONE', #231, 4.000000000000002665, 0.7853981633974479459 ) ;
#7 = MECHANICAL_CONTEXT ( 'NONE', #61, 'mechanical' ) ;
#8 = CARTESIAN_POINT ( 'NONE',  ( 1.332886142756127685E-13, -4.999999999999995559, 5.000000000000048850 ) ) ;
#9 = CARTESIAN_POINT ( 'NONE',  ( 2.513866563967056016E-13, 3.999999999999994227, 72.00000000000000000 ) ) ;
#10 = ORIENTED_EDGE ( 'NONE', *, *, #11, .F. ) ;
#11 = EDGE_CURVE ( 'NONE', #186, #243, #258, .T. ) ;
#12 = DATE_TIME_ROLE ( 'classification_date' ) ;
#13 = DIRECTION ( 'NONE',  ( -2.382254525458717469E-15, -0.7071067811865471286, -0.7071067811865479058 ) ) ;
#14 = CIRCLE ( 'NONE', #181, 4.999999999999994671 ) ;
#15 = DIRECTION ( 'NONE',  ( 0.0000000000000000000, 1.000000000000000000, 0.0000000000000000000 ) ) ;
#16 = DIRECTION ( 'NONE',  ( 4.275831445896958607E-31, 1.000000000000000000, 1.224646799147353207E-16 ) ) ;
#17 = PERSON_AND_ORGANIZATION ( #21, #18 ) ;
#18 = ORGANIZATION ( 'UNSPECIFIED', 'UNSPECIFIED', '' ) ;
#19 = AXIS2_PLACEMENT_3D ( 'NONE', #34, #76, #279 ) ;
#20 = DIRECTION ( 'NONE',  ( -4.275831445896958607E-31, -1.000000000000000000, -1.224646799147353207E-16 ) ) ;
#21 = PERSON ( 'UNSPECIFIED', 'UNSPECIFIED', 'UNSPECIFIED', ('UNSPECIFIED'), ('UNSPECIFIED'), ('UNSPECIFIED') ) ;
#22 =( LENGTH_UNIT ( ) NAMED_UNIT ( * ) SI_UNIT ( .MILLI., .METRE. ) );
#23 = AXIS2_PLACEMENT_3D ( 'NONE', #277, #59, #223 ) ;
#24 = DIRECTION ( 'NONE',  ( 0.0000000000000000000, 0.0000000000000000000, 1.000000000000000000 ) ) ;
#25 = EDGE_LOOP ( 'NONE', ( #84, #87, #43, #1 ) ) ;
#26 = EDGE_CURVE ( 'NONE', #109, #218, #267, .T. ) ;
#27 = CARTESIAN_POINT ( 'NONE',  ( 1.745740669421584033E-14, -6.123233995736826433E-16, 5.000000000000049738 ) ) ;
#28 = ORIENTED_EDGE ( 'NONE', *, *, #212, .T. ) ;
#29 = APPROVAL_ROLE ( '' ) ;
#30 = CARTESIAN_POINT ( 'NONE',  ( 1.745740669421584033E-14, -6.123233995736826433E-16, 5.000000000000049738 ) ) ;
#31 = AXIS2_PLACEMENT_3D ( 'NONE', #225, #274, #79 ) ;
#32 = ADVANCED_FACE ( 'NONE', ( #71 ), #102, .T. ) ;
#33 = DIRECTION ( 'NONE',  ( -3.491481338843133355E-15, 1.224646799147353207E-16, -1.000000000000000000 ) ) ;
#34 = CARTESIAN_POINT ( 'NONE',  ( 1.745740669421584033E-14, -6.123233995736826433E-16, 5.000000000000049738 ) ) ;
#35 = CALENDAR_DATE ( 2021, 21, 9 ) ;
#36 = FACE_OUTER_BOUND ( 'NONE', #155, .T. ) ;
#37 = CLOSED_SHELL ( 'NONE', ( #32, #202, #63 ) ) ;
#38 = LOCAL_TIME ( 9, 46, 55.00000000000000000, #137 ) ;
#39 = DATE_TIME_ROLE ( 'creation_date' ) ;
#40 = CARTESIAN_POINT ( 'NONE',  ( 1.745740669421584033E-14, -6.123233995736826433E-16, 5.000000000000049738 ) ) ;
#41 = CC_DESIGN_PERSON_AND_ORGANIZATION_ASSIGNMENT ( #252, #205, ( #281 ) ) ;
#42 = AXIS2_PLACEMENT_3D ( 'NONE', #156, #210, #215 ) ;
#43 = ORIENTED_EDGE ( 'NONE', *, *, #96, .F. ) ;
#44 = PERSON_AND_ORGANIZATION_ROLE ( 'creator' ) ;
#45 = ORIENTED_EDGE ( 'NONE', *, *, #77, .F. ) ;
#46 = FACE_OUTER_BOUND ( 'NONE', #239, .T. ) ;
#47 = ORIENTED_EDGE ( 'NONE', *, *, #11, .T. ) ;
#48 = CARTESIAN_POINT ( 'NONE',  ( 0.0000000000000000000, 0.0000000000000000000, 0.0000000000000000000 ) ) ;
#49 = DIRECTION ( 'NONE',  ( -3.491481338843133355E-15, 1.224646799147353207E-16, -1.000000000000000000 ) ) ;
#50 = DIRECTION ( 'NONE',  ( -3.491481338843133355E-15, 1.224646799147353207E-16, -1.000000000000000000 ) ) ;
#51 = VERTEX_POINT ( 'NONE', #139 ) ;
#52 = CC_DESIGN_DATE_AND_TIME_ASSIGNMENT ( #57, #39, ( #123 ) ) ;
#53 = DIRECTION ( 'NONE',  ( 6.162975822039161736E-31, 1.000000000000000000, 1.734723475976809067E-16 ) ) ;
#54 = AXIS2_PLACEMENT_3D ( 'NONE', #160, #94, #58 ) ;
#55 = SECURITY_CLASSIFICATION ( '', '', #97 ) ;
#56 = CARTESIAN_POINT ( 'NONE',  ( 0.0000000000000000000, 0.0000000000000000000, 0.0000000000000000000 ) ) ;
#57 = DATE_AND_TIME ( #188, #256 ) ;
#58 = DIRECTION ( 'NONE',  ( 0.0000000000000000000, 1.000000000000000000, 0.0000000000000000000 ) ) ;
#59 = DIRECTION ( 'NONE',  ( -3.491481338843133355E-15, 1.224646799147353207E-16, -1.000000000000000000 ) ) ;
#60 = DIRECTION ( 'NONE',  ( -6.162975822039161736E-31, -1.000000000000000000, -1.734723475976809067E-16 ) ) ;
#61 = APPLICATION_CONTEXT ( 'configuration controlled 3d designs of mechanical parts and assemblies' ) ;
#62 = CIRCLE ( 'NONE', #184, 4.999999999999994671 ) ;
#63 = ADVANCED_FACE ( 'NONE', ( #114 ), #229, .T. ) ;
#64 = APPROVAL_PERSON_ORGANIZATION ( #224, #111, #199 ) ;
#65 = ORIENTED_EDGE ( 'NONE', *, *, #213, .T. ) ;
#66 = APPROVAL_DATE_TIME ( #261, #142 ) ;
#67 = ORIENTED_EDGE ( 'NONE', *, *, #283, .F. ) ;
#68 = EDGE_LOOP ( 'NONE', ( #45, #150 ) ) ;
#69 = DIRECTION ( 'NONE',  ( 6.162975822039161736E-31, 1.000000000000000000, 1.734723475976809067E-16 ) ) ;
#70 = VERTEX_POINT ( 'NONE', #249 ) ;
#71 = FACE_OUTER_BOUND ( 'NONE', #287, .T. ) ;
#72 = DIRECTION ( 'NONE',  ( -3.491481338843133355E-15, 1.224646799147353207E-16, -1.000000000000000000 ) ) ;
#73 = VERTEX_POINT ( 'NONE', #8 ) ;
#74 = VECTOR ( 'NONE', #240, 1000.000000000000000 ) ;
#75 = APPROVAL_DATE_TIME ( #203, #257 ) ;
#76 = DIRECTION ( 'NONE',  ( -3.491481338843133355E-15, 1.224646799147353207E-16, -1.000000000000000000 ) ) ;
#77 = EDGE_CURVE ( 'NONE', #262, #236, #14, .T. ) ;
#78 = FACE_OUTER_BOUND ( 'NONE', #245, .T. ) ;
#79 = DIRECTION ( 'NONE',  ( -4.275831445896958607E-31, -1.000000000000000000, -1.224646799147353207E-16 ) ) ;
#80 = PRODUCT ( '61561', '61561', '', ( #7 ) ) ;
#81 = AXIS2_PLACEMENT_3D ( 'NONE', #30, #168, #91 ) ;
#82 = ORIENTED_EDGE ( 'NONE', *, *, #282, .F. ) ;
#83 = APPLICATION_PROTOCOL_DEFINITION ( 'international standard', 'config_control_design', 1994, #143 ) ;
#84 = ORIENTED_EDGE ( 'NONE', *, *, #103, .T. ) ;
#85 = CC_DESIGN_PERSON_AND_ORGANIZATION_ASSIGNMENT ( #276, #92, ( #281 ) ) ;
#86 = CARTESIAN_POINT ( 'NONE',  ( 1.806973009378951922E-14, 4.999999999999993783, 5.000000000000050626 ) ) ;
#87 = ORIENTED_EDGE ( 'NONE', *, *, #2, .T. ) ;
#88 = CARTESIAN_POINT ( 'NONE',  ( 1.745740669421583717E-14, -4.999999999999995559, 5.000000000000048850 ) ) ;
#89 = EDGE_LOOP ( 'NONE', ( #82, #187, #284 ) ) ;
#90 = VECTOR ( 'NONE', #13, 1000.000000000000000 ) ;
#91 = DIRECTION ( 'NONE',  ( -6.162975822039161736E-31, -1.000000000000000000, -1.734723475976809067E-16 ) ) ;
#92 = PERSON_AND_ORGANIZATION_ROLE ( 'creator' ) ;
#93 = APPROVAL_DATE_TIME ( #197, #111 ) ;
#94 = DIRECTION ( 'NONE',  ( -3.491481338843133355E-15, 1.224646799147353207E-16, -1.000000000000000000 ) ) ;
#95 = CIRCLE ( 'NONE', #19, 4.999999999999994671 ) ;
#96 = EDGE_CURVE ( 'NONE', #218, #73, #220, .T. ) ;
#97 = SECURITY_CLASSIFICATION_LEVEL ( 'unclassified' ) ;
#98 = CARTESIAN_POINT ( 'NONE',  ( 2.513866563967056016E-13, -8.817456953860941711E-15, 72.00000000000000000 ) ) ;
#99 = PERSON_AND_ORGANIZATION ( #21, #18 ) ;
#100 = CARTESIAN_POINT ( 'NONE',  ( 1.745740669421584033E-14, -6.123233995736826433E-16, 5.000000000000049738 ) ) ;
#101 = CC_DESIGN_PERSON_AND_ORGANIZATION_ASSIGNMENT ( #263, #106, ( #80 ) ) ;
#102 = CONICAL_SURFACE ( 'NONE', #81, 4.999999999999994671, 0.7853981633974428389 ) ;
#103 = EDGE_CURVE ( 'NONE', #109, #70, #131, .T. ) ;
#104 = DIRECTION ( 'NONE',  ( 0.0000000000000000000, 1.000000000000000000, 0.0000000000000000000 ) ) ;
#105 = CONICAL_SURFACE ( 'NONE', #122, 4.999999999999994671, 0.7853981633974428389 ) ;
#106 = PERSON_AND_ORGANIZATION_ROLE ( 'design_owner' ) ;
#107 = ORIENTED_EDGE ( 'NONE', *, *, #234, .T. ) ;
#108 = DIRECTION ( 'NONE',  ( 1.000000000000000000, 0.0000000000000000000, 0.0000000000000000000 ) ) ;
#109 = VERTEX_POINT ( 'NONE', #248 ) ;
#110 = LINE ( 'NONE', #153, #183 ) ;
#111 = APPROVAL ( #176, 'UNSPECIFIED' ) ;
#112 = CARTESIAN_POINT ( 'NONE',  ( 2.518765151163645422E-13, -4.000000000000011546, 72.00000000000000000 ) ) ;
#113 = DIRECTION ( 'NONE',  ( 4.275831445896958607E-31, 1.000000000000000000, 1.224646799147353207E-16 ) ) ;
#114 = FACE_OUTER_BOUND ( 'NONE', #68, .T. ) ;
#115 = ADVANCED_FACE ( 'NONE', ( #270 ), #204, .T. ) ;
#116 = CALENDAR_DATE ( 2021, 21, 9 ) ;
#117 = FACE_OUTER_BOUND ( 'NONE', #171, .T. ) ;
#118 = APPROVAL_PERSON_ORGANIZATION ( #17, #257, #278 ) ;
#119 = COORDINATED_UNIVERSAL_TIME_OFFSET ( 1, 0, .AHEAD. ) ;
#120 = DIRECTION ( 'NONE',  ( 3.491481338843133355E-15, -1.224646799147353207E-16, 1.000000000000000000 ) ) ;
#121 = ADVANCED_FACE ( 'NONE', ( #117 ), #6, .T. ) ;
#122 = AXIS2_PLACEMENT_3D ( 'NONE', #40, #120, #60 ) ;
#123 = PRODUCT_DEFINITION ( 'UNKNOWN', '', #281, #3 ) ;
#124 = ORIENTED_EDGE ( 'NONE', *, *, #234, .F. ) ;
#125 = COORDINATED_UNIVERSAL_TIME_OFFSET ( 1, 0, .AHEAD. ) ;
#126 = ORIENTED_EDGE ( 'NONE', *, *, #2, .F. ) ;
#127 = CLOSED_SHELL ( 'NONE', ( #134, #115, #285, #154, #121, #226 ) ) ;
#128 = ORIENTED_EDGE ( 'NONE', *, *, #96, .T. ) ;
#129 = APPLICATION_PROTOCOL_DEFINITION ( 'international standard', 'config_control_design', 1994, #61 ) ;
#130 = CARTESIAN_POINT ( 'NONE',  ( 2.513866563967056016E-13, -8.817456953860941711E-15, 72.00000000000000000 ) ) ;
#131 = CIRCLE ( 'NONE', #54, 5.000000000000002665 ) ;
#132 = CARTESIAN_POINT ( 'NONE',  ( 1.745740669421583717E-14, -4.999999999999995559, 5.000000000000048850 ) ) ;
#133 = VECTOR ( 'NONE', #200, 1000.000000000000000 ) ;
#134 = ADVANCED_FACE ( 'NONE', ( #78 ), #227, .T. ) ;
#135 = ADVANCED_BREP_SHAPE_REPRESENTATION ( '61561', ( #232, #233, #177 ), #235 ) ;
#136 = CARTESIAN_POINT ( 'NONE',  ( 2.513866563967056016E-13, -8.817456953860941711E-15, 72.00000000000000000 ) ) ;
#137 = COORDINATED_UNIVERSAL_TIME_OFFSET ( 1, 0, .AHEAD. ) ;
#138 = LINE ( 'NONE', #132, #133 ) ;
#139 = CARTESIAN_POINT ( 'NONE',  ( 0.0000000000000000000, 0.0000000000000000000, 0.0000000000000000000 ) ) ;
#140 = CIRCLE ( 'NONE', #42, 5.000000000000002665 ) ;
#141 = LINE ( 'NONE', #112, #90 ) ;
#142 = APPROVAL ( #242, 'UNSPECIFIED' ) ;
#143 = APPLICATION_CONTEXT ( 'configuration controlled 3d designs of mechanical parts and assemblies' ) ;
#144 = AXIS2_PLACEMENT_3D ( 'NONE', #100, #72, #158 ) ;
#145 = AXIS2_PLACEMENT_3D ( 'NONE', #180, #161, #159 ) ;
#146 = PRODUCT_RELATED_PRODUCT_CATEGORY ( 'detail', '', ( #80 ) ) ;
#147 = LOCAL_TIME ( 9, 46, 55.00000000000000000, #195 ) ;
#148 = ORIENTED_EDGE ( 'NONE', *, *, #185, .F. ) ;
#149 = ORIENTED_EDGE ( 'NONE', *, *, #282, .T. ) ;
#150 = ORIENTED_EDGE ( 'NONE', *, *, #212, .F. ) ;
#151 = CIRCLE ( 'NONE', #145, 4.000000000000002665 ) ;
#152 = DIRECTION ( 'NONE',  ( 3.491481338843133355E-15, -1.224646799147353207E-16, 1.000000000000000000 ) ) ;
#153 = CARTESIAN_POINT ( 'NONE',  ( 6.123233995736743603E-16, -4.999999999999999112, -6.123233995736786004E-16 ) ) ;
#154 = ADVANCED_FACE ( 'NONE', ( #36 ), #253, .T. ) ;
#155 = EDGE_LOOP ( 'NONE', ( #126, #165, #174, #67 ) ) ;
#156 = CARTESIAN_POINT ( 'NONE',  ( 2.478951750578624304E-13, -8.694992273946206563E-15, 71.00000000000000000 ) ) ;
#157 = DIRECTION ( 'NONE',  ( -3.491481338843133355E-15, 1.224646799147353207E-16, -1.000000000000000000 ) ) ;
#158 = DIRECTION ( 'NONE',  ( 6.162975822039161736E-31, 1.000000000000000000, 1.734723475976809067E-16 ) ) ;
#159 = DIRECTION ( 'NONE',  ( 0.0000000000000000000, 1.000000000000000000, 0.0000000000000000000 ) ) ;
#160 = CARTESIAN_POINT ( 'NONE',  ( 2.478951750578624304E-13, -8.694992273946206563E-15, 71.00000000000000000 ) ) ;
#161 = DIRECTION ( 'NONE',  ( -3.491481338843133355E-15, 1.224646799147353207E-16, -1.000000000000000000 ) ) ;
#162 = VECTOR ( 'NONE', #237, 999.9999999999998863 ) ;
#163 = CC_DESIGN_PERSON_AND_ORGANIZATION_ASSIGNMENT ( #238, #44, ( #123 ) ) ;
#164 = AXIS2_PLACEMENT_3D ( 'NONE', #56, #179, #16 ) ;
#165 = ORIENTED_EDGE ( 'NONE', *, *, #260, .T. ) ;
#166 = CC_DESIGN_APPROVAL ( #257, ( #55 ) ) ;
#167 = CALENDAR_DATE ( 2021, 21, 9 ) ;
#168 = DIRECTION ( 'NONE',  ( 3.491481338843133355E-15, -1.224646799147353207E-16, 1.000000000000000000 ) ) ;
#169 = ORIENTED_EDGE ( 'NONE', *, *, #103, .F. ) ;
#170 =( NAMED_UNIT ( * ) PLANE_ANGLE_UNIT ( ) SI_UNIT ( $, .RADIAN. ) );
#171 = EDGE_LOOP ( 'NONE', ( #5, #216, #107, #190 ) ) ;
#172 = LOCAL_TIME ( 9, 46, 55.00000000000000000, #119 ) ;
#173 = LINE ( 'NONE', #86, #74 ) ;
#174 = ORIENTED_EDGE ( 'NONE', *, *, #26, .T. ) ;
#175 = DIRECTION ( 'NONE',  ( -3.491481338843133355E-15, 1.224646799147353207E-16, -1.000000000000000000 ) ) ;
#176 = APPROVAL_STATUS ( 'not_yet_approved' ) ;
#177 = AXIS2_PLACEMENT_3D ( 'NONE', #48, #24, #108 ) ;
#178 = PLANE ( 'NONE',  #182 ) ;
#179 = DIRECTION ( 'NONE',  ( -3.491481338843133355E-15, 1.224646799147353207E-16, -1.000000000000000000 ) ) ;
#180 = CARTESIAN_POINT ( 'NONE',  ( 2.513866563967056016E-13, -8.817456953860941711E-15, 72.00000000000000000 ) ) ;
#181 = AXIS2_PLACEMENT_3D ( 'NONE', #268, #201, #53 ) ;
#182 = AXIS2_PLACEMENT_3D ( 'NONE', #222, #33, #113 ) ;
#183 = VECTOR ( 'NONE', #211, 1000.000000000000000 ) ;
#184 = AXIS2_PLACEMENT_3D ( 'NONE', #27, #50, #69 ) ;
#185 = EDGE_CURVE ( 'NONE', #51, #262, #138, .T. ) ;
#186 = VERTEX_POINT ( 'NONE', #9 ) ;
#187 = ORIENTED_EDGE ( 'NONE', *, *, #185, .T. ) ;
#188 = CALENDAR_DATE ( 2021, 21, 9 ) ;
#189 = CARTESIAN_POINT ( 'NONE',  ( 1.745740669421585295E-14, -8.673617379884128163E-16, 5.000000000000053291 ) ) ;
#190 = ORIENTED_EDGE ( 'NONE', *, *, #260, .F. ) ;
#191 = DIRECTION ( 'NONE',  ( -3.491481338843133355E-15, 1.224646799147353207E-16, -1.000000000000000000 ) ) ;
#192 = AXIS2_PLACEMENT_3D ( 'NONE', #130, #49, #104 ) ;
#193 = AXIS2_PLACEMENT_3D ( 'NONE', #189, #152, #20 ) ;
#194 = CC_DESIGN_PERSON_AND_ORGANIZATION_ASSIGNMENT ( #99, #269, ( #55 ) ) ;
#195 = COORDINATED_UNIVERSAL_TIME_OFFSET ( 1, 0, .AHEAD. ) ;
#196 = CARTESIAN_POINT ( 'NONE',  ( 1.745740669421584348E-14, 4.999999999999993783, 5.000000000000050626 ) ) ;
#197 = DATE_AND_TIME ( #35, #265 ) ;
#198 = LINE ( 'NONE', #208, #162 ) ;
#199 = APPROVAL_ROLE ( '' ) ;
#200 = DIRECTION ( 'NONE',  ( 2.468850131082278754E-15, -0.7071067811865437980, 0.7071067811865513475 ) ) ;
#201 = DIRECTION ( 'NONE',  ( -3.491481338843133355E-15, 1.224646799147353207E-16, -1.000000000000000000 ) ) ;
#202 = ADVANCED_FACE ( 'NONE', ( #228 ), #105, .T. ) ;
#203 = DATE_AND_TIME ( #247, #172 ) ;
#204 = CYLINDRICAL_SURFACE ( 'NONE', #164, 4.999999999999999112 ) ;
#205 = PERSON_AND_ORGANIZATION_ROLE ( 'design_supplier' ) ;
#206 = EDGE_CURVE ( 'NONE', #243, #186, #151, .T. ) ;
#207 = CC_DESIGN_SECURITY_CLASSIFICATION ( #55, ( #281 ) ) ;
#208 = CARTESIAN_POINT ( 'NONE',  ( 2.513866563967056016E-13, 3.999999999999994227, 72.00000000000000000 ) ) ;
#209 = EDGE_LOOP ( 'NONE', ( #10, #264 ) ) ;
#210 = DIRECTION ( 'NONE',  ( -3.491481338843133355E-15, 1.224646799147353207E-16, -1.000000000000000000 ) ) ;
#211 = DIRECTION ( 'NONE',  ( -3.491481338843133355E-15, 1.224646799147353207E-16, -1.000000000000000000 ) ) ;
#212 = EDGE_CURVE ( 'NONE', #236, #262, #95, .T. ) ;
#213 = EDGE_CURVE ( 'NONE', #243, #70, #141, .T. ) ;
#214 = APPROVAL_PERSON_ORGANIZATION ( #219, #142, #29 ) ;
#215 = DIRECTION ( 'NONE',  ( 0.0000000000000000000, 1.000000000000000000, 0.0000000000000000000 ) ) ;
#216 = ORIENTED_EDGE ( 'NONE', *, *, #206, .T. ) ;
#217 = UNCERTAINTY_MEASURE_WITH_UNIT (LENGTH_MEASURE( 1.000000000000000082E-05 ), #22, 'distance_accuracy_value', 'NONE');
#218 = VERTEX_POINT ( 'NONE', #196 ) ;
#219 = PERSON_AND_ORGANIZATION ( #21, #18 ) ;
#220 = CIRCLE ( 'NONE', #144, 4.999999999999994671 ) ;
#221 = AXIS2_PLACEMENT_3D ( 'NONE', #98, #157, #251 ) ;
#222 = CARTESIAN_POINT ( 'NONE',  ( 2.513866563967056016E-13, 2.999519565323704815E-32, 72.00000000000000000 ) ) ;
#223 = DIRECTION ( 'NONE',  ( 4.275831445896958607E-31, 1.000000000000000000, 1.224646799147353207E-16 ) ) ;
#224 = PERSON_AND_ORGANIZATION ( #21, #18 ) ;
#225 = CARTESIAN_POINT ( 'NONE',  ( 1.745740669421585295E-14, -8.673617379884128163E-16, 5.000000000000053291 ) ) ;
#226 = ADVANCED_FACE ( 'NONE', ( #246 ), #178, .F. ) ;
#227 = CONICAL_SURFACE ( 'NONE', #221, 4.000000000000002665, 0.7853981633974479459 ) ;
#228 = FACE_OUTER_BOUND ( 'NONE', #89, .T. ) ;
#229 = PLANE ( 'NONE',  #31 ) ;
#230 = CC_DESIGN_DATE_AND_TIME_ASSIGNMENT ( #273, #12, ( #55 ) ) ;
#231 = AXIS2_PLACEMENT_3D ( 'NONE', #136, #175, #15 ) ;
#232 = MANIFOLD_SOLID_BREP ( 'Corps-Déplacer/Copier1[1]', #127 ) ;
#233 = MANIFOLD_SOLID_BREP ( 'Corps-Déplacer/Copier1[2]', #37 ) ;
#234 = EDGE_CURVE ( 'NONE', #186, #109, #198, .T. ) ;
#235 =( GEOMETRIC_REPRESENTATION_CONTEXT ( 3 ) GLOBAL_UNCERTAINTY_ASSIGNED_CONTEXT ( ( #217 ) ) GLOBAL_UNIT_ASSIGNED_CONTEXT ( ( #22, #170, #4 ) ) REPRESENTATION_CONTEXT ( 'NONE', 'WORKASPACE' ) );
#236 = VERTEX_POINT ( 'NONE', #275 ) ;
#237 = DIRECTION ( 'NONE',  ( -2.468850131082266527E-15, 0.7071067811865473507, -0.7071067811865477948 ) ) ;
#238 = PERSON_AND_ORGANIZATION ( #21, #18 ) ;
#239 = EDGE_LOOP ( 'NONE', ( #128, #241 ) ) ;
#240 = DIRECTION ( 'NONE',  ( 2.555445736705828206E-15, 0.7071067811865435759, 0.7071067811865515695 ) ) ;
#241 = ORIENTED_EDGE ( 'NONE', *, *, #283, .T. ) ;
#242 = APPROVAL_STATUS ( 'not_yet_approved' ) ;
#243 = VERTEX_POINT ( 'NONE', #244 ) ;
#244 = CARTESIAN_POINT ( 'NONE',  ( 2.501920067869003115E-13, -4.000000000000011546, 72.00000000000000000 ) ) ;
#245 = EDGE_LOOP ( 'NONE', ( #47, #65, #169, #124 ) ) ;
#246 = FACE_OUTER_BOUND ( 'NONE', #209, .T. ) ;
#247 = CALENDAR_DATE ( 2021, 21, 9 ) ;
#248 = CARTESIAN_POINT ( 'NONE',  ( 2.478951750578624304E-13, 4.999999999999993783, 71.00000000000000000 ) ) ;
#249 = CARTESIAN_POINT ( 'NONE',  ( 1.332886142756126675E-13, -5.000000000000011546, 71.00000000000000000 ) ) ;
#250 = APPROVAL_STATUS ( 'not_yet_approved' ) ;
#251 = DIRECTION ( 'NONE',  ( 0.0000000000000000000, 1.000000000000000000, 0.0000000000000000000 ) ) ;
#252 = PERSON_AND_ORGANIZATION ( #21, #18 ) ;
#253 = CYLINDRICAL_SURFACE ( 'NONE', #23, 4.999999999999999112 ) ;
#254 = SHAPE_DEFINITION_REPRESENTATION ( #255, #135 ) ;
#255 = PRODUCT_DEFINITION_SHAPE ( 'NONE', 'NONE',  #123 ) ;
#256 = LOCAL_TIME ( 9, 46, 55.00000000000000000, #125 ) ;
#257 = APPROVAL ( #250, 'UNSPECIFIED' ) ;
#258 = CIRCLE ( 'NONE', #192, 4.000000000000002665 ) ;
#259 = CC_DESIGN_APPROVAL ( #111, ( #281 ) ) ;
#260 = EDGE_CURVE ( 'NONE', #70, #109, #140, .T. ) ;
#261 = DATE_AND_TIME ( #167, #147 ) ;
#262 = VERTEX_POINT ( 'NONE', #88 ) ;
#263 = PERSON_AND_ORGANIZATION ( #21, #18 ) ;
#264 = ORIENTED_EDGE ( 'NONE', *, *, #206, .F. ) ;
#265 = LOCAL_TIME ( 9, 46, 55.00000000000000000, #280 ) ;
#266 = PLANE ( 'NONE',  #193 ) ;
#267 = LINE ( 'NONE', #286, #271 ) ;
#268 = CARTESIAN_POINT ( 'NONE',  ( 1.745740669421584033E-14, -6.123233995736826433E-16, 5.000000000000049738 ) ) ;
#269 = PERSON_AND_ORGANIZATION_ROLE ( 'classification_officer' ) ;
#270 = FACE_OUTER_BOUND ( 'NONE', #25, .T. ) ;
#271 = VECTOR ( 'NONE', #191, 1000.000000000000000 ) ;
#272 = CC_DESIGN_APPROVAL ( #142, ( #123 ) ) ;
#273 = DATE_AND_TIME ( #116, #38 ) ;
#274 = DIRECTION ( 'NONE',  ( 3.491481338843133355E-15, -1.224646799147353207E-16, 1.000000000000000000 ) ) ;
#275 = CARTESIAN_POINT ( 'NONE',  ( 1.806973009378951922E-14, 4.999999999999993783, 5.000000000000050626 ) ) ;
#276 = PERSON_AND_ORGANIZATION ( #21, #18 ) ;
#277 = CARTESIAN_POINT ( 'NONE',  ( 0.0000000000000000000, 0.0000000000000000000, 0.0000000000000000000 ) ) ;
#278 = APPROVAL_ROLE ( '' ) ;
#279 = DIRECTION ( 'NONE',  ( 6.162975822039161736E-31, 1.000000000000000000, 1.734723475976809067E-16 ) ) ;
#280 = COORDINATED_UNIVERSAL_TIME_OFFSET ( 1, 0, .AHEAD. ) ;
#281 = PRODUCT_DEFINITION_FORMATION_WITH_SPECIFIED_SOURCE ( 'ANY', '', #80, .NOT_KNOWN. ) ;
#282 = EDGE_CURVE ( 'NONE', #51, #236, #173, .T. ) ;
#283 = EDGE_CURVE ( 'NONE', #73, #218, #62, .T. ) ;
#284 = ORIENTED_EDGE ( 'NONE', *, *, #77, .T. ) ;
#285 = ADVANCED_FACE ( 'NONE', ( #46 ), #266, .F. ) ;
#286 = CARTESIAN_POINT ( 'NONE',  ( 2.137915722948478778E-30, 4.999999999999999112, 6.123233995736765296E-16 ) ) ;
#287 = EDGE_LOOP ( 'NONE', ( #148, #149, #28 ) ) ;
ENDSEC;
END-ISO-10303-21;
