ISO-10303-21;
HEADER;
FILE_DESCRIPTION (( 'STEP AP203' ),
    '1' );
FILE_NAME ('61443.step',
    '2021-11-10T07:14:13',
    ( '' ),
    ( '' ),
    'SwSTEP 2.0',
    'SolidWorks 2019',
    '' );
FILE_SCHEMA (( 'CONFIG_CONTROL_DESIGN' ));
ENDSEC;

DATA;
#1 = CIRCLE ( 'NONE', #206, 1.199999999999998845 ) ;
#2 = DIRECTION ( 'NONE',  ( 1.000000000000000000, 0.0000000000000000000, -3.469446951953622866E-15 ) ) ;
#3 = DIRECTION ( 'NONE',  ( 3.491481338843133355E-15, -0.0000000000000000000, 1.000000000000000000 ) ) ;
#4 = FACE_OUTER_BOUND ( 'NONE', #234, .T. ) ;
#5 =( LENGTH_UNIT ( ) NAMED_UNIT ( * ) SI_UNIT ( .MILLI., .METRE. ) );
#6 = CC_DESIGN_PERSON_AND_ORGANIZATION_ASSIGNMENT ( #18, #74, ( #77 ) ) ;
#7 = CARTESIAN_POINT ( 'NONE',  ( 0.2000000000000015099, 0.0000000000000000000, 0.3999999999999986344 ) ) ;
#8 = EDGE_LOOP ( 'NONE', ( #167 ) ) ;
#9 = CALENDAR_DATE ( 2021, 10, 11 ) ;
#10 =( GEOMETRIC_REPRESENTATION_CONTEXT ( 3 ) GLOBAL_UNCERTAINTY_ASSIGNED_CONTEXT ( ( #127 ) ) GLOBAL_UNIT_ASSIGNED_CONTEXT ( ( #5, #68, #45 ) ) REPRESENTATION_CONTEXT ( 'NONE', 'WORKASPACE' ) );
#11 = VERTEX_POINT ( 'NONE', #111 ) ;
#12 = CC_DESIGN_PERSON_AND_ORGANIZATION_ASSIGNMENT ( #140, #216, ( #142 ) ) ;
#13 = APPLICATION_CONTEXT ( 'configuration controlled 3d designs of mechanical parts and assemblies' ) ;
#14 = APPROVAL_ROLE ( '' ) ;
#15 = AXIS2_PLACEMENT_3D ( 'NONE', #137, #181, #39 ) ;
#16 = CLOSED_SHELL ( 'NONE', ( #218, #226, #73 ) ) ;
#17 = EDGE_CURVE ( 'NONE', #168, #168, #1, .T. ) ;
#18 = PERSON_AND_ORGANIZATION ( #32, #28 ) ;
#19 = APPROVAL_ROLE ( '' ) ;
#20 = DIRECTION ( 'NONE',  ( 3.491481338843133355E-15, -0.0000000000000000000, 1.000000000000000000 ) ) ;
#21 = FACE_OUTER_BOUND ( 'NONE', #52, .T. ) ;
#22 = DIRECTION ( 'NONE',  ( 4.275831445896958607E-31, 1.000000000000000000, 1.224646799147353207E-16 ) ) ;
#23 = AXIS2_PLACEMENT_3D ( 'NONE', #138, #214, #22 ) ;
#24 = CARTESIAN_POINT ( 'NONE',  ( 1.396592535537250976E-15, 0.0000000000000000000, 0.3999999999999993006 ) ) ;
#25 = FACE_OUTER_BOUND ( 'NONE', #153, .T. ) ;
#26 = VERTEX_POINT ( 'NONE', #170 ) ;
#27 = VERTEX_POINT ( 'NONE', #7 ) ;
#28 = ORGANIZATION ( 'UNSPECIFIED', 'UNSPECIFIED', '' ) ;
#29 = EDGE_CURVE ( 'NONE', #92, #92, #175, .T. ) ;
#30 = PRODUCT_DEFINITION_SHAPE ( 'NONE', 'NONE',  #109 ) ;
#31 = PLANE ( 'NONE',  #202 ) ;
#32 = PERSON ( 'UNSPECIFIED', 'UNSPECIFIED', 'UNSPECIFIED', ('UNSPECIFIED'), ('UNSPECIFIED'), ('UNSPECIFIED') ) ;
#33 = COORDINATED_UNIVERSAL_TIME_OFFSET ( 1, 0, .AHEAD. ) ;
#34 = EDGE_LOOP ( 'NONE', ( #141 ) ) ;
#35 = PERSON_AND_ORGANIZATION ( #32, #28 ) ;
#36 = PERSON_AND_ORGANIZATION ( #32, #28 ) ;
#37 = APPROVAL ( #185, 'UNSPECIFIED' ) ;
#38 = APPLICATION_CONTEXT ( 'configuration controlled 3d designs of mechanical parts and assemblies' ) ;
#39 = DIRECTION ( 'NONE',  ( 0.0000000000000000000, 1.000000000000000000, 0.0000000000000000000 ) ) ;
#40 = PLANE ( 'NONE',  #59 ) ;
#41 = DIRECTION ( 'NONE',  ( -3.491481338843133355E-15, 1.224646799147353207E-16, -1.000000000000000000 ) ) ;
#42 = DESIGN_CONTEXT ( 'detailed design', #13, 'design' ) ;
#43 = CC_DESIGN_APPROVAL ( #37, ( #109 ) ) ;
#44 = FACE_OUTER_BOUND ( 'NONE', #70, .T. ) ;
#45 =( NAMED_UNIT ( * ) SI_UNIT ( $, .STERADIAN. ) SOLID_ANGLE_UNIT ( ) );
#46 = CALENDAR_DATE ( 2021, 10, 11 ) ;
#47 = CIRCLE ( 'NONE', #143, 0.2000000000000000944 ) ;
#48 = EDGE_LOOP ( 'NONE', ( #88 ) ) ;
#49 = DATE_AND_TIME ( #46, #197 ) ;
#50 = COORDINATED_UNIVERSAL_TIME_OFFSET ( 1, 0, .AHEAD. ) ;
#51 = CLOSED_SHELL ( 'NONE', ( #146, #94, #189, #115, #85, #242 ) ) ;
#52 = EDGE_LOOP ( 'NONE', ( #192 ) ) ;
#53 = DATE_AND_TIME ( #95, #238 ) ;
#54 = CC_DESIGN_PERSON_AND_ORGANIZATION_ASSIGNMENT ( #113, #207, ( #77 ) ) ;
#55 = EDGE_LOOP ( 'NONE', ( #219 ) ) ;
#56 = DATE_AND_TIME ( #221, #176 ) ;
#57 = AXIS2_PLACEMENT_3D ( 'NONE', #243, #41, #136 ) ;
#58 = CARTESIAN_POINT ( 'NONE',  ( 1.396592535537251764E-15, 0.0000000000000000000, 0.3999999999999995226 ) ) ;
#59 = AXIS2_PLACEMENT_3D ( 'NONE', #241, #178, #229 ) ;
#60 = DIRECTION ( 'NONE',  ( 0.0000000000000000000, 1.000000000000000000, 0.0000000000000000000 ) ) ;
#61 = FACE_BOUND ( 'NONE', #66, .T. ) ;
#62 = CC_DESIGN_PERSON_AND_ORGANIZATION_ASSIGNMENT ( #203, #201, ( #109 ) ) ;
#63 = CARTESIAN_POINT ( 'NONE',  ( 1.925541848792812733E-14, 0.0000000000000000000, 5.514971045014438467 ) ) ;
#64 = LOCAL_TIME ( 8, 14, 13.00000000000000000, #33 ) ;
#65 = DIRECTION ( 'NONE',  ( 1.000000000000000000, 0.0000000000000000000, 0.0000000000000000000 ) ) ;
#66 = EDGE_LOOP ( 'NONE', ( #81 ) ) ;
#67 = CARTESIAN_POINT ( 'NONE',  ( -1.786038389295302186E-30, 0.0000000000000000000, -5.115417256925931626E-16 ) ) ;
#68 =( NAMED_UNIT ( * ) PLANE_ANGLE_UNIT ( ) SI_UNIT ( $, .RADIAN. ) );
#69 = AXIS2_PLACEMENT_3D ( 'NONE', #63, #20, #225 ) ;
#70 = EDGE_LOOP ( 'NONE', ( #172 ) ) ;
#71 = PERSON_AND_ORGANIZATION ( #32, #28 ) ;
#72 = PERSON_AND_ORGANIZATION_ROLE ( 'classification_officer' ) ;
#73 = ADVANCED_FACE ( 'NONE', ( #211 ), #40, .F. ) ;
#74 = PERSON_AND_ORGANIZATION_ROLE ( 'design_supplier' ) ;
#75 = CALENDAR_DATE ( 2021, 10, 11 ) ;
#76 = EDGE_CURVE ( 'NONE', #11, #11, #91, .T. ) ;
#77 = PRODUCT_DEFINITION_FORMATION_WITH_SPECIFIED_SOURCE ( 'ANY', '', #142, .NOT_KNOWN. ) ;
#78 = FACE_BOUND ( 'NONE', #34, .T. ) ;
#79 = CARTESIAN_POINT ( 'NONE',  ( 0.0000000000000000000, 0.0000000000000000000, 0.0000000000000000000 ) ) ;
#80 = CIRCLE ( 'NONE', #159, 0.2681483474218601115 ) ;
#81 = ORIENTED_EDGE ( 'NONE', *, *, #160, .T. ) ;
#82 = FACE_OUTER_BOUND ( 'NONE', #232, .T. ) ;
#83 = EDGE_LOOP ( 'NONE', ( #169 ) ) ;
#84 = DIRECTION ( 'NONE',  ( 1.000000000000000000, 0.0000000000000000000, -3.491481338843133750E-15 ) ) ;
#85 = ADVANCED_FACE ( 'NONE', ( #61, #4 ), #180, .T. ) ;
#86 = AXIS2_PLACEMENT_3D ( 'NONE', #210, #164, #179 ) ;
#87 = DIRECTION ( 'NONE',  ( 0.0000000000000000000, 0.0000000000000000000, 1.000000000000000000 ) ) ;
#88 = ORIENTED_EDGE ( 'NONE', *, *, #29, .F. ) ;
#89 = CARTESIAN_POINT ( 'NONE',  ( 0.0000000000000000000, 0.0000000000000000000, 0.0000000000000000000 ) ) ;
#90 = FACE_OUTER_BOUND ( 'NONE', #117, .T. ) ;
#91 = CIRCLE ( 'NONE', #106, 1.499999999999996225 ) ;
#92 = VERTEX_POINT ( 'NONE', #200 ) ;
#93 = PERSON_AND_ORGANIZATION ( #32, #28 ) ;
#94 = ADVANCED_FACE ( 'NONE', ( #25, #78 ), #122, .T. ) ;
#95 = CALENDAR_DATE ( 2021, 10, 11 ) ;
#96 = ORIENTED_EDGE ( 'NONE', *, *, #76, .F. ) ;
#97 = CC_DESIGN_SECURITY_CLASSIFICATION ( #240, ( #77 ) ) ;
#98 = COORDINATED_UNIVERSAL_TIME_OFFSET ( 1, 0, .AHEAD. ) ;
#99 = AXIS2_PLACEMENT_3D ( 'NONE', #58, #3, #193 ) ;
#100 = DIRECTION ( 'NONE',  ( -3.491481338843133355E-15, 1.224646799147353207E-16, -1.000000000000000000 ) ) ;
#101 = CARTESIAN_POINT ( 'NONE',  ( 3.203916267762507751E-15, 0.0000000000000000000, 0.9176380902050281785 ) ) ;
#102 = PLANE ( 'NONE',  #86 ) ;
#103 = DIRECTION ( 'NONE',  ( 3.491481338843133355E-15, -0.0000000000000000000, 1.000000000000000000 ) ) ;
#104 = CARTESIAN_POINT ( 'NONE',  ( 1.396592535537250976E-15, 0.0000000000000000000, 0.3999999999999993006 ) ) ;
#105 = CARTESIAN_POINT ( 'NONE',  ( 0.2000000000000015099, 0.0000000000000000000, 0.3999999999999986344 ) ) ;
#106 = AXIS2_PLACEMENT_3D ( 'NONE', #162, #161, #2 ) ;
#107 = CARTESIAN_POINT ( 'NONE',  ( 1.396592535537252356E-15, -5.782411586589370951E-17, 0.3999999999999996891 ) ) ;
#108 = APPLICATION_PROTOCOL_DEFINITION ( 'international standard', 'config_control_design', 1994, #13 ) ;
#109 = PRODUCT_DEFINITION ( 'UNKNOWN', '', #77, #42 ) ;
#110 = DIRECTION ( 'NONE',  ( 3.491481338843133355E-15, -1.224646799147353207E-16, 1.000000000000000000 ) ) ;
#111 = CARTESIAN_POINT ( 'NONE',  ( 1.500000000000015321, 0.0000000000000000000, 5.514971045014434026 ) ) ;
#112 = CC_DESIGN_APPROVAL ( #199, ( #77 ) ) ;
#113 = PERSON_AND_ORGANIZATION ( #32, #28 ) ;
#114 = APPROVAL_PERSON_ORGANIZATION ( #35, #195, #19 ) ;
#115 = ADVANCED_FACE ( 'NONE', ( #44, #157 ), #165, .F. ) ;
#116 = APPROVAL_DATE_TIME ( #133, #199 ) ;
#117 = EDGE_LOOP ( 'NONE', ( #174 ) ) ;
#118 = AXIS2_PLACEMENT_3D ( 'NONE', #79, #194, #227 ) ;
#119 = CARTESIAN_POINT ( 'NONE',  ( 1.326762908760390423E-13, -4.653657836759941941E-15, 38.00000000000000000 ) ) ;
#120 = FACE_OUTER_BOUND ( 'NONE', #163, .T. ) ;
#121 = DIRECTION ( 'NONE',  ( 1.000000000000000000, 0.0000000000000000000, -3.523657060577887833E-15 ) ) ;
#122 = CONICAL_SURFACE ( 'NONE', #15, 1.199999999999998845, 0.7853981633974450594 ) ;
#123 = CC_DESIGN_APPROVAL ( #195, ( #240 ) ) ;
#124 = FACE_OUTER_BOUND ( 'NONE', #8, .T. ) ;
#125 = APPLICATION_PROTOCOL_DEFINITION ( 'international standard', 'config_control_design', 1994, #38 ) ;
#126 = APPROVAL_DATE_TIME ( #49, #37 ) ;
#127 = UNCERTAINTY_MEASURE_WITH_UNIT (LENGTH_MEASURE( 1.000000000000000082E-05 ), #5, 'distance_accuracy_value', 'NONE');
#128 = CARTESIAN_POINT ( 'NONE',  ( 1.326762908760390423E-13, 1.199999999999994182, 38.00000000000000000 ) ) ;
#129 = VERTEX_POINT ( 'NONE', #105 ) ;
#130 = DATE_TIME_ROLE ( 'creation_date' ) ;
#131 = CIRCLE ( 'NONE', #156, 0.2000000000000000944 ) ;
#132 = APPROVAL_DATE_TIME ( #56, #195 ) ;
#133 = DATE_AND_TIME ( #75, #64 ) ;
#134 = CYLINDRICAL_SURFACE ( 'NONE', #118, 1.499999999999996225 ) ;
#135 = DIRECTION ( 'NONE',  ( 3.491481338843133355E-15, -0.0000000000000000000, 1.000000000000000000 ) ) ;
#136 = DIRECTION ( 'NONE',  ( 0.0000000000000000000, 1.000000000000000000, 0.0000000000000000000 ) ) ;
#137 = CARTESIAN_POINT ( 'NONE',  ( 1.326762908760390423E-13, -4.653657836759941941E-15, 38.00000000000000000 ) ) ;
#138 = CARTESIAN_POINT ( 'NONE',  ( 1.326762908760390423E-13, 8.998558695971069014E-33, 38.00000000000000000 ) ) ;
#139 = CARTESIAN_POINT ( 'NONE',  ( 1.316288464743861212E-13, 1.499999999999994005, 37.69999999999999574 ) ) ;
#140 = PERSON_AND_ORGANIZATION ( #32, #28 ) ;
#141 = ORIENTED_EDGE ( 'NONE', *, *, #17, .T. ) ;
#142 = PRODUCT ( '61443', '61443', '', ( #231 ) ) ;
#143 = AXIS2_PLACEMENT_3D ( 'NONE', #24, #103, #182 ) ;
#144 = APPROVAL_ROLE ( '' ) ;
#145 = COORDINATED_UNIVERSAL_TIME_OFFSET ( 1, 0, .AHEAD. ) ;
#146 = ADVANCED_FACE ( 'NONE', ( #158, #21 ), #134, .T. ) ;
#147 = DATE_TIME_ROLE ( 'classification_date' ) ;
#148 = ORIENTED_EDGE ( 'NONE', *, *, #184, .T. ) ;
#149 = SECURITY_CLASSIFICATION_LEVEL ( 'unclassified' ) ;
#150 = AXIS2_PLACEMENT_3D ( 'NONE', #89, #87, #65 ) ;
#151 = MANIFOLD_SOLID_BREP ( 'Corps-Déplacer/Copier1[2]', #16 ) ;
#152 = PRODUCT_RELATED_PRODUCT_CATEGORY ( 'detail', '', ( #142 ) ) ;
#153 = EDGE_LOOP ( 'NONE', ( #208 ) ) ;
#154 = MANIFOLD_SOLID_BREP ( 'Corps-Déplacer/Copier1[1]', #51 ) ;
#155 = APPROVAL_STATUS ( 'not_yet_approved' ) ;
#156 = AXIS2_PLACEMENT_3D ( 'NONE', #104, #212, #121 ) ;
#157 = FACE_OUTER_BOUND ( 'NONE', #83, .T. ) ;
#158 = FACE_OUTER_BOUND ( 'NONE', #239, .T. ) ;
#159 = AXIS2_PLACEMENT_3D ( 'NONE', #101, #198, #230 ) ;
#160 = EDGE_CURVE ( 'NONE', #26, #26, #80, .T. ) ;
#161 = DIRECTION ( 'NONE',  ( 3.491481338843133355E-15, -0.0000000000000000000, 1.000000000000000000 ) ) ;
#162 = CARTESIAN_POINT ( 'NONE',  ( 1.925541848792812733E-14, 0.0000000000000000000, 5.514971045014438467 ) ) ;
#163 = EDGE_LOOP ( 'NONE', ( #148 ) ) ;
#164 = DIRECTION ( 'NONE',  ( 3.491481338843133355E-15, -1.224646799147353207E-16, 1.000000000000000000 ) ) ;
#165 = TOROIDAL_SURFACE ( 'NONE', #99, 2.200000000000000178, 2.000000000000000000 ) ;
#166 = EDGE_CURVE ( 'NONE', #187, #187, #237, .T. ) ;
#167 = ORIENTED_EDGE ( 'NONE', *, *, #29, .T. ) ;
#168 = VERTEX_POINT ( 'NONE', #128 ) ;
#169 = ORIENTED_EDGE ( 'NONE', *, *, #160, .F. ) ;
#170 = CARTESIAN_POINT ( 'NONE',  ( 0.2681483474218633312, 0.0000000000000000000, 0.9176380902050271793 ) ) ;
#171 = FACE_OUTER_BOUND ( 'NONE', #55, .T. ) ;
#172 = ORIENTED_EDGE ( 'NONE', *, *, #222, .T. ) ;
#173 = APPROVAL_PERSON_ORGANIZATION ( #71, #37, #144 ) ;
#174 = ORIENTED_EDGE ( 'NONE', *, *, #184, .F. ) ;
#175 = CIRCLE ( 'NONE', #223, 0.1999999999999998723 ) ;
#176 = LOCAL_TIME ( 8, 14, 13.00000000000000000, #98 ) ;
#177 = ORIENTED_EDGE ( 'NONE', *, *, #166, .T. ) ;
#178 = DIRECTION ( 'NONE',  ( 3.491481338843133355E-15, -1.224646799147353207E-16, 1.000000000000000000 ) ) ;
#179 = DIRECTION ( 'NONE',  ( -4.275831445896958607E-31, -1.000000000000000000, -1.224646799147353207E-16 ) ) ;
#180 = CONICAL_SURFACE ( 'NONE', #69, 1.499999999999996225, 0.2617993877991428020 ) ;
#181 = DIRECTION ( 'NONE',  ( -3.491481338843133355E-15, 1.224646799147353207E-16, -1.000000000000000000 ) ) ;
#182 = DIRECTION ( 'NONE',  ( 1.000000000000000000, 0.0000000000000000000, -3.523657060577887833E-15 ) ) ;
#183 = DIRECTION ( 'NONE',  ( -4.275831445896958607E-31, -1.000000000000000000, -1.224646799147353207E-16 ) ) ;
#184 = EDGE_CURVE ( 'NONE', #27, #27, #131, .T. ) ;
#185 = APPROVAL_STATUS ( 'not_yet_approved' ) ;
#186 = LOCAL_TIME ( 8, 14, 13.00000000000000000, #50 ) ;
#187 = VERTEX_POINT ( 'NONE', #139 ) ;
#188 = APPROVAL_STATUS ( 'not_yet_approved' ) ;
#189 = ADVANCED_FACE ( 'NONE', ( #82 ), #196, .F. ) ;
#190 = ADVANCED_BREP_SHAPE_REPRESENTATION ( '61443', ( #154, #151, #150 ), #10 ) ;
#191 = SHAPE_DEFINITION_REPRESENTATION ( #30, #190 ) ;
#192 = ORIENTED_EDGE ( 'NONE', *, *, #76, .T. ) ;
#193 = DIRECTION ( 'NONE',  ( 1.000000000000000000, 0.0000000000000000000, -3.491481338843133750E-15 ) ) ;
#194 = DIRECTION ( 'NONE',  ( -3.491481338843133355E-15, 1.224646799147353207E-16, -1.000000000000000000 ) ) ;
#195 = APPROVAL ( #188, 'UNSPECIFIED' ) ;
#196 = PLANE ( 'NONE',  #23 ) ;
#197 = LOCAL_TIME ( 8, 14, 13.00000000000000000, #145 ) ;
#198 = DIRECTION ( 'NONE',  ( 3.491481338843133355E-15, -0.0000000000000000000, 1.000000000000000000 ) ) ;
#199 = APPROVAL ( #155, 'UNSPECIFIED' ) ;
#200 = CARTESIAN_POINT ( 'NONE',  ( 0.1999999999999998723, 0.0000000000000000000, -6.982962677686262766E-16 ) ) ;
#201 = PERSON_AND_ORGANIZATION_ROLE ( 'creator' ) ;
#202 = AXIS2_PLACEMENT_3D ( 'NONE', #107, #110, #183 ) ;
#203 = PERSON_AND_ORGANIZATION ( #32, #28 ) ;
#204 = ORIENTED_EDGE ( 'NONE', *, *, #17, .F. ) ;
#205 = DIRECTION ( 'NONE',  ( 3.491481338843133355E-15, -0.0000000000000000000, 1.000000000000000000 ) ) ;
#206 = AXIS2_PLACEMENT_3D ( 'NONE', #119, #100, #60 ) ;
#207 = PERSON_AND_ORGANIZATION_ROLE ( 'creator' ) ;
#208 = ORIENTED_EDGE ( 'NONE', *, *, #166, .F. ) ;
#209 = AXIS2_PLACEMENT_3D ( 'NONE', #67, #205, #217 ) ;
#210 = CARTESIAN_POINT ( 'NONE',  ( 1.396592535537252356E-15, -5.782411586589370951E-17, 0.3999999999999996891 ) ) ;
#211 = FACE_OUTER_BOUND ( 'NONE', #48, .T. ) ;
#212 = DIRECTION ( 'NONE',  ( 3.491481338843133355E-15, -0.0000000000000000000, 1.000000000000000000 ) ) ;
#213 = CC_DESIGN_PERSON_AND_ORGANIZATION_ASSIGNMENT ( #36, #72, ( #240 ) ) ;
#214 = DIRECTION ( 'NONE',  ( -3.491481338843133355E-15, 1.224646799147353207E-16, -1.000000000000000000 ) ) ;
#215 = APPROVAL_PERSON_ORGANIZATION ( #93, #199, #14 ) ;
#216 = PERSON_AND_ORGANIZATION_ROLE ( 'design_owner' ) ;
#217 = DIRECTION ( 'NONE',  ( 1.000000000000000000, 0.0000000000000000000, -3.491481338843133750E-15 ) ) ;
#218 = ADVANCED_FACE ( 'NONE', ( #120 ), #102, .T. ) ;
#219 = ORIENTED_EDGE ( 'NONE', *, *, #222, .F. ) ;
#220 = DATE_AND_TIME ( #9, #186 ) ;
#221 = CALENDAR_DATE ( 2021, 10, 11 ) ;
#222 = EDGE_CURVE ( 'NONE', #129, #129, #47, .T. ) ;
#223 = AXIS2_PLACEMENT_3D ( 'NONE', #228, #135, #84 ) ;
#224 = COORDINATED_UNIVERSAL_TIME_OFFSET ( 1, 0, .AHEAD. ) ;
#225 = DIRECTION ( 'NONE',  ( 1.000000000000000000, 0.0000000000000000000, -3.469446951953622866E-15 ) ) ;
#226 = ADVANCED_FACE ( 'NONE', ( #124, #90 ), #235, .T. ) ;
#227 = DIRECTION ( 'NONE',  ( 4.275831445896958607E-31, 1.000000000000000000, 1.224646799147353207E-16 ) ) ;
#228 = CARTESIAN_POINT ( 'NONE',  ( 0.0000000000000000000, 0.0000000000000000000, 0.0000000000000000000 ) ) ;
#229 = DIRECTION ( 'NONE',  ( -4.275831445896958607E-31, -1.000000000000000000, -1.224646799147353207E-16 ) ) ;
#230 = DIRECTION ( 'NONE',  ( 1.000000000000000000, 0.0000000000000000000, -3.638963150877900123E-15 ) ) ;
#231 = MECHANICAL_CONTEXT ( 'NONE', #38, 'mechanical' ) ;
#232 = EDGE_LOOP ( 'NONE', ( #204 ) ) ;
#233 = CC_DESIGN_DATE_AND_TIME_ASSIGNMENT ( #53, #147, ( #240 ) ) ;
#234 = EDGE_LOOP ( 'NONE', ( #96 ) ) ;
#235 = CYLINDRICAL_SURFACE ( 'NONE', #209, 0.1999999999999999833 ) ;
#236 = CC_DESIGN_DATE_AND_TIME_ASSIGNMENT ( #220, #130, ( #109 ) ) ;
#237 = CIRCLE ( 'NONE', #57, 1.499999999999998446 ) ;
#238 = LOCAL_TIME ( 8, 14, 13.00000000000000000, #224 ) ;
#239 = EDGE_LOOP ( 'NONE', ( #177 ) ) ;
#240 = SECURITY_CLASSIFICATION ( '', '', #149 ) ;
#241 = CARTESIAN_POINT ( 'NONE',  ( -6.413803915257457113E-31, 2.249659577954772199E-32, -1.836986451539393076E-16 ) ) ;
#242 = ADVANCED_FACE ( 'NONE', ( #171 ), #31, .F. ) ;
#243 = CARTESIAN_POINT ( 'NONE',  ( 1.316288464743861212E-13, -4.616918432785521081E-15, 37.69999999999999574 ) ) ;
ENDSEC;
END-ISO-10303-21;
