ISO-10303-21;
HEADER;
FILE_DESCRIPTION (( 'STEP AP203' ),
    '1' );
FILE_NAME ('61412.step',
    '2021-11-17T10:20:14',
    ( '' ),
    ( '' ),
    'SwSTEP 2.0',
    'SolidWorks 2019',
    '' );
FILE_SCHEMA (( 'CONFIG_CONTROL_DESIGN' ));
ENDSEC;

DATA;
#1 = CIRCLE ( 'NONE', #158, 3.000000000000000000 ) ;
#2 = DATE_AND_TIME ( #136, #218 ) ;
#3 = ORIENTED_EDGE ( 'NONE', *, *, #189, .T. ) ;
#4 = MANIFOLD_SOLID_BREP ( 'Corps-Déplacer/Copier1[2]', #194 ) ;
#5 = DIRECTION ( 'NONE',  ( 4.275831445896958607E-31, 1.000000000000000000, 1.224646799147353207E-16 ) ) ;
#6 = EDGE_LOOP ( 'NONE', ( #116 ) ) ;
#7 = EDGE_LOOP ( 'NONE', ( #3 ) ) ;
#8 = FACE_OUTER_BOUND ( 'NONE', #120, .T. ) ;
#9 = CC_DESIGN_APPROVAL ( #48, ( #11 ) ) ;
#10 = CALENDAR_DATE ( 2021, 17, 11 ) ;
#11 = PRODUCT_DEFINITION_FORMATION_WITH_SPECIFIED_SOURCE ( 'ANY', '', #115, .NOT_KNOWN. ) ;
#12 = PERSON_AND_ORGANIZATION ( #170, #141 ) ;
#13 = ORIENTED_EDGE ( 'NONE', *, *, #101, .T. ) ;
#14 = APPROVAL_STATUS ( 'not_yet_approved' ) ;
#15 = DATE_AND_TIME ( #10, #199 ) ;
#16 = ADVANCED_FACE ( 'NONE', ( #125 ), #107, .T. ) ;
#17 = CC_DESIGN_PERSON_AND_ORGANIZATION_ASSIGNMENT ( #153, #135, ( #146 ) ) ;
#18 = ORIENTED_EDGE ( 'NONE', *, *, #41, .T. ) ;
#19 = DIRECTION ( 'NONE',  ( -4.275831445896958607E-31, -1.000000000000000000, -1.224646799147353207E-16 ) ) ;
#20 = EDGE_LOOP ( 'NONE', ( #174 ) ) ;
#21 = DIRECTION ( 'NONE',  ( -4.172848212839010723E-31, -1.000000000000000000, -1.174552353525963055E-16 ) ) ;
#22 = FACE_OUTER_BOUND ( 'NONE', #178, .T. ) ;
#23 = DIRECTION ( 'NONE',  ( 0.0000000000000000000, 1.000000000000000000, 0.0000000000000000000 ) ) ;
#24 = CARTESIAN_POINT ( 'NONE',  ( -1.096017141276699377E-30, 3.823185896468070963E-32, -3.139117855459750018E-16 ) ) ;
#25 = ADVANCED_FACE ( 'NONE', ( #215 ), #123, .F. ) ;
#26 =( NAMED_UNIT ( * ) PLANE_ANGLE_UNIT ( ) SI_UNIT ( $, .RADIAN. ) );
#27 = AXIS2_PLACEMENT_3D ( 'NONE', #71, #52, #163 ) ;
#28 = PERSON_AND_ORGANIZATION ( #170, #141 ) ;
#29 = APPROVAL_ROLE ( '' ) ;
#30 = APPROVAL_PERSON_ORGANIZATION ( #78, #151, #148 ) ;
#31 = APPROVAL_DATE_TIME ( #119, #172 ) ;
#32 = AXIS2_PLACEMENT_3D ( 'NONE', #37, #73, #213 ) ;
#33 = PLANE ( 'NONE',  #209 ) ;
#34 = CARTESIAN_POINT ( 'NONE',  ( 1.972686956446370283E-13, -6.919254415182544548E-15, 56.49999999999999289 ) ) ;
#35 = DIRECTION ( 'NONE',  ( 0.0000000000000000000, 1.000000000000000000, 0.0000000000000000000 ) ) ;
#36 = CC_DESIGN_SECURITY_CLASSIFICATION ( #146, ( #11 ) ) ;
#37 = CARTESIAN_POINT ( 'NONE',  ( 0.0000000000000000000, 0.0000000000000000000, 0.0000000000000000000 ) ) ;
#38 = ORIENTED_EDGE ( 'NONE', *, *, #124, .T. ) ;
#39 = CARTESIAN_POINT ( 'NONE',  ( 5.237222008264700033E-14, 2.999999999999997780, 15.00000000000000000 ) ) ;
#40 = PERSON_AND_ORGANIZATION_ROLE ( 'creator' ) ;
#41 = EDGE_CURVE ( 'NONE', #130, #130, #187, .T. ) ;
#42 =( LENGTH_UNIT ( ) NAMED_UNIT ( * ) SI_UNIT ( .MILLI., .METRE. ) );
#43 = PERSON_AND_ORGANIZATION ( #170, #141 ) ;
#44 = EDGE_LOOP ( 'NONE', ( #51 ) ) ;
#45 = DATE_AND_TIME ( #203, #175 ) ;
#46 = PERSON_AND_ORGANIZATION ( #170, #141 ) ;
#47 = AXIS2_PLACEMENT_3D ( 'NONE', #59, #139, #5 ) ;
#48 = APPROVAL ( #177, 'UNSPECIFIED' ) ;
#49 = AXIS2_PLACEMENT_3D ( 'NONE', #24, #188, #63 ) ;
#50 = CC_DESIGN_APPROVAL ( #172, ( #146 ) ) ;
#51 = ORIENTED_EDGE ( 'NONE', *, *, #142, .T. ) ;
#52 = DIRECTION ( 'NONE',  ( -3.491481338843133355E-15, 1.224646799147353207E-16, -1.000000000000000000 ) ) ;
#53 = CC_DESIGN_PERSON_AND_ORGANIZATION_ASSIGNMENT ( #43, #98, ( #11 ) ) ;
#54 = ORIENTED_EDGE ( 'NONE', *, *, #124, .F. ) ;
#55 = AXIS2_PLACEMENT_3D ( 'NONE', #144, #74, #85 ) ;
#56 = ORIENTED_EDGE ( 'NONE', *, *, #212, .F. ) ;
#57 = APPROVAL_PERSON_ORGANIZATION ( #46, #172, #29 ) ;
#58 = APPLICATION_CONTEXT ( 'configuration controlled 3d designs of mechanical parts and assemblies' ) ;
#59 = CARTESIAN_POINT ( 'NONE',  ( 1.990144363140586139E-13, 1.874699728327311336E-32, 57.00000000000000000 ) ) ;
#60 = DIRECTION ( 'NONE',  ( 1.000000000000000000, 0.0000000000000000000, 0.0000000000000000000 ) ) ;
#61 = CALENDAR_DATE ( 2021, 17, 11 ) ;
#62 = ADVANCED_FACE ( 'NONE', ( #8, #208 ), #76, .T. ) ;
#63 = DIRECTION ( 'NONE',  ( -4.252335473556634944E-31, -1.000000000000000000, -1.217917285207545432E-16 ) ) ;
#64 = CARTESIAN_POINT ( 'NONE',  ( 5.237222008264700033E-14, -1.836970198721029589E-15, 15.00000000000000000 ) ) ;
#65 = CONICAL_SURFACE ( 'NONE', #91, 3.000000000000000000, 0.7853981633974516097 ) ;
#66 = ORIENTED_EDGE ( 'NONE', *, *, #212, .T. ) ;
#67 = PERSON_AND_ORGANIZATION ( #170, #141 ) ;
#68 = APPROVAL_ROLE ( '' ) ;
#69 = CARTESIAN_POINT ( 'NONE',  ( -6.413747168845438786E-31, 2.249639673992786412E-32, -1.836970198721029934E-16 ) ) ;
#70 = CONICAL_SURFACE ( 'NONE', #214, 3.000000000000000000, 0.7853981633974415066 ) ;
#71 = CARTESIAN_POINT ( 'NONE',  ( 1.972686956446370283E-13, -6.919254415182544548E-15, 56.49999999999999289 ) ) ;
#72 = DESIGN_CONTEXT ( 'detailed design', #58, 'design' ) ;
#73 = DIRECTION ( 'NONE',  ( -3.491481338843133355E-15, 1.224646799147353207E-16, -1.000000000000000000 ) ) ;
#74 = DIRECTION ( 'NONE',  ( -3.491481338843133355E-15, 1.224646799147353207E-16, -1.000000000000000000 ) ) ;
#75 = ADVANCED_FACE ( 'NONE', ( #179 ), #33, .F. ) ;
#76 = CYLINDRICAL_SURFACE ( 'NONE', #96, 3.000000000000000000 ) ;
#77 = VERTEX_POINT ( 'NONE', #220 ) ;
#78 = PERSON_AND_ORGANIZATION ( #170, #141 ) ;
#79 = PERSON_AND_ORGANIZATION ( #170, #141 ) ;
#80 = PERSON_AND_ORGANIZATION_ROLE ( 'design_supplier' ) ;
#81 = CALENDAR_DATE ( 2021, 17, 11 ) ;
#82 = EDGE_LOOP ( 'NONE', ( #13 ) ) ;
#83 = CC_DESIGN_PERSON_AND_ORGANIZATION_ASSIGNMENT ( #28, #94, ( #115 ) ) ;
#84 = CIRCLE ( 'NONE', #134, 2.999999999999999556 ) ;
#85 = DIRECTION ( 'NONE',  ( 0.0000000000000000000, 1.000000000000000000, 0.0000000000000000000 ) ) ;
#86 = DIRECTION ( 'NONE',  ( 0.0000000000000000000, 1.000000000000000000, 0.0000000000000000000 ) ) ;
#87 = CC_DESIGN_DATE_AND_TIME_ASSIGNMENT ( #15, #159, ( #190 ) ) ;
#88 = DIRECTION ( 'NONE',  ( -3.491481338843133355E-15, 1.224646799147353207E-16, -1.000000000000000000 ) ) ;
#89 = APPLICATION_CONTEXT ( 'configuration controlled 3d designs of mechanical parts and assemblies' ) ;
#90 = CARTESIAN_POINT ( 'NONE',  ( 6.982962677686242059E-16, -2.435834570415082606E-17, 0.1999999999999993172 ) ) ;
#91 = AXIS2_PLACEMENT_3D ( 'NONE', #90, #197, #202 ) ;
#92 = CARTESIAN_POINT ( 'NONE',  ( 1.990144363140586139E-13, 2.499999999999992895, 57.00000000000000000 ) ) ;
#93 = LOCAL_TIME ( 11, 20, 14.00000000000000000, #100 ) ;
#94 = PERSON_AND_ORGANIZATION_ROLE ( 'design_owner' ) ;
#95 = COORDINATED_UNIVERSAL_TIME_OFFSET ( 1, 0, .AHEAD. ) ;
#96 = AXIS2_PLACEMENT_3D ( 'NONE', #191, #104, #143 ) ;
#97 = APPROVAL_STATUS ( 'not_yet_approved' ) ;
#98 = PERSON_AND_ORGANIZATION_ROLE ( 'creator' ) ;
#99 = EDGE_LOOP ( 'NONE', ( #128 ) ) ;
#100 = COORDINATED_UNIVERSAL_TIME_OFFSET ( 1, 0, .AHEAD. ) ;
#101 = EDGE_CURVE ( 'NONE', #77, #77, #1, .T. ) ;
#102 = SHAPE_DEFINITION_REPRESENTATION ( #118, #109 ) ;
#103 = DIRECTION ( 'NONE',  ( 3.491481338843133355E-15, -1.224646799147353207E-16, 1.000000000000000000 ) ) ;
#104 = DIRECTION ( 'NONE',  ( -3.491481338843133355E-15, 1.224646799147353207E-16, -1.000000000000000000 ) ) ;
#105 = FACE_OUTER_BOUND ( 'NONE', #99, .T. ) ;
#106 = PRODUCT_RELATED_PRODUCT_CATEGORY ( 'detail', '', ( #115 ) ) ;
#107 = PLANE ( 'NONE',  #222 ) ;
#108 = DIRECTION ( 'NONE',  ( -3.491481338843133355E-15, 1.224646799147353207E-16, -1.000000000000000000 ) ) ;
#109 = ADVANCED_BREP_SHAPE_REPRESENTATION ( '61412', ( #156, #4, #166 ), #140 ) ;
#110 = LOCAL_TIME ( 11, 20, 14.00000000000000000, #217 ) ;
#111 = VERTEX_POINT ( 'NONE', #92 ) ;
#112 = DIRECTION ( 'NONE',  ( -4.275831445896958607E-31, -1.000000000000000000, -1.224646799147353207E-16 ) ) ;
#113 = APPLICATION_PROTOCOL_DEFINITION ( 'international standard', 'config_control_design', 1994, #89 ) ;
#114 = CIRCLE ( 'NONE', #55, 2.499999999999999556 ) ;
#115 = PRODUCT ( '61412', '61412', '', ( #132 ) ) ;
#116 = ORIENTED_EDGE ( 'NONE', *, *, #189, .F. ) ;
#117 = DATE_TIME_ROLE ( 'classification_date' ) ;
#118 = PRODUCT_DEFINITION_SHAPE ( 'NONE', 'NONE',  #190 ) ;
#119 = DATE_AND_TIME ( #81, #93 ) ;
#120 = EDGE_LOOP ( 'NONE', ( #18 ) ) ;
#121 = AXIS2_PLACEMENT_3D ( 'NONE', #133, #221, #112 ) ;
#122 = DIRECTION ( 'NONE',  ( -3.491481338843133355E-15, 1.224646799147353207E-16, -1.000000000000000000 ) ) ;
#123 = PLANE ( 'NONE',  #47 ) ;
#124 = EDGE_CURVE ( 'NONE', #111, #111, #114, .T. ) ;
#125 = FACE_OUTER_BOUND ( 'NONE', #206, .T. ) ;
#126 = CC_DESIGN_PERSON_AND_ORGANIZATION_ASSIGNMENT ( #12, #80, ( #11 ) ) ;
#127 = CARTESIAN_POINT ( 'NONE',  ( 5.237222008264700033E-14, 2.249639673992783401E-32, 15.00000000000000000 ) ) ;
#128 = ORIENTED_EDGE ( 'NONE', *, *, #41, .F. ) ;
#129 = DATE_AND_TIME ( #61, #110 ) ;
#130 = VERTEX_POINT ( 'NONE', #150 ) ;
#131 = CC_DESIGN_PERSON_AND_ORGANIZATION_ASSIGNMENT ( #79, #40, ( #190 ) ) ;
#132 = MECHANICAL_CONTEXT ( 'NONE', #89, 'mechanical' ) ;
#133 = CARTESIAN_POINT ( 'NONE',  ( 5.237222008264700033E-14, 2.249639673992783401E-32, 15.00000000000000000 ) ) ;
#134 = AXIS2_PLACEMENT_3D ( 'NONE', #161, #210, #35 ) ;
#135 = PERSON_AND_ORGANIZATION_ROLE ( 'classification_officer' ) ;
#136 = CALENDAR_DATE ( 2021, 17, 11 ) ;
#137 = APPROVAL_PERSON_ORGANIZATION ( #67, #48, #68 ) ;
#138 = APPROVAL_DATE_TIME ( #2, #48 ) ;
#139 = DIRECTION ( 'NONE',  ( -3.491481338843133355E-15, 1.224646799147353207E-16, -1.000000000000000000 ) ) ;
#140 =( GEOMETRIC_REPRESENTATION_CONTEXT ( 3 ) GLOBAL_UNCERTAINTY_ASSIGNED_CONTEXT ( ( #180 ) ) GLOBAL_UNIT_ASSIGNED_CONTEXT ( ( #42, #26, #167 ) ) REPRESENTATION_CONTEXT ( 'NONE', 'WORKASPACE' ) );
#141 = ORGANIZATION ( 'UNSPECIFIED', 'UNSPECIFIED', '' ) ;
#142 = EDGE_CURVE ( 'NONE', #183, #183, #84, .T. ) ;
#143 = DIRECTION ( 'NONE',  ( 4.275831445896959482E-31, 1.000000000000000000, 1.224646799147353207E-16 ) ) ;
#144 = CARTESIAN_POINT ( 'NONE',  ( 1.990144363140586139E-13, -6.980486755139912911E-15, 57.00000000000000000 ) ) ;
#145 = FACE_OUTER_BOUND ( 'NONE', #82, .T. ) ;
#146 = SECURITY_CLASSIFICATION ( '', '', #223 ) ;
#147 = DIRECTION ( 'NONE',  ( 4.275831445896958607E-31, 1.000000000000000000, 1.224646799147353207E-16 ) ) ;
#148 = APPROVAL_ROLE ( '' ) ;
#149 = CLOSED_SHELL ( 'NONE', ( #75, #62, #168, #25 ) ) ;
#150 = CARTESIAN_POINT ( 'NONE',  ( 1.972686956446370283E-13, 2.999999999999993339, 56.49999999999999289 ) ) ;
#151 = APPROVAL ( #97, 'UNSPECIFIED' ) ;
#152 = FACE_OUTER_BOUND ( 'NONE', #20, .T. ) ;
#153 = PERSON_AND_ORGANIZATION ( #170, #141 ) ;
#154 = CIRCLE ( 'NONE', #49, 2.799999999999998934 ) ;
#155 = CC_DESIGN_APPROVAL ( #151, ( #190 ) ) ;
#156 = MANIFOLD_SOLID_BREP ( 'Corps-Déplacer/Copier1[1]', #149 ) ;
#157 = COORDINATED_UNIVERSAL_TIME_OFFSET ( 1, 0, .AHEAD. ) ;
#158 = AXIS2_PLACEMENT_3D ( 'NONE', #193, #195, #21 ) ;
#159 = DATE_TIME_ROLE ( 'creation_date' ) ;
#160 = ORIENTED_EDGE ( 'NONE', *, *, #101, .F. ) ;
#161 = CARTESIAN_POINT ( 'NONE',  ( 5.237222008264700033E-14, -1.836970198721029589E-15, 15.00000000000000000 ) ) ;
#162 = CYLINDRICAL_SURFACE ( 'NONE', #32, 3.000000000000000000 ) ;
#163 = DIRECTION ( 'NONE',  ( 0.0000000000000000000, 1.000000000000000000, 0.0000000000000000000 ) ) ;
#164 = EDGE_LOOP ( 'NONE', ( #54 ) ) ;
#165 = AXIS2_PLACEMENT_3D ( 'NONE', #64, #108, #23 ) ;
#166 = AXIS2_PLACEMENT_3D ( 'NONE', #169, #216, #60 ) ;
#167 =( NAMED_UNIT ( * ) SI_UNIT ( $, .STERADIAN. ) SOLID_ANGLE_UNIT ( ) );
#168 = ADVANCED_FACE ( 'NONE', ( #192, #105 ), #70, .T. ) ;
#169 = CARTESIAN_POINT ( 'NONE',  ( 0.0000000000000000000, 0.0000000000000000000, 0.0000000000000000000 ) ) ;
#170 = PERSON ( 'UNSPECIFIED', 'UNSPECIFIED', 'UNSPECIFIED', ('UNSPECIFIED'), ('UNSPECIFIED'), ('UNSPECIFIED') ) ;
#171 = CARTESIAN_POINT ( 'NONE',  ( -2.286671073872556986E-30, -2.799999999999998934, -6.549286254040876144E-16 ) ) ;
#172 = APPROVAL ( #14, 'UNSPECIFIED' ) ;
#173 = VERTEX_POINT ( 'NONE', #39 ) ;
#174 = ORIENTED_EDGE ( 'NONE', *, *, #142, .F. ) ;
#175 = LOCAL_TIME ( 11, 20, 14.00000000000000000, #204 ) ;
#176 = ADVANCED_FACE ( 'NONE', ( #211, #145 ), #162, .T. ) ;
#177 = APPROVAL_STATUS ( 'not_yet_approved' ) ;
#178 = EDGE_LOOP ( 'NONE', ( #160 ) ) ;
#179 = FACE_OUTER_BOUND ( 'NONE', #7, .T. ) ;
#180 = UNCERTAINTY_MEASURE_WITH_UNIT (LENGTH_MEASURE( 1.000000000000000082E-05 ), #42, 'distance_accuracy_value', 'NONE');
#181 = EDGE_LOOP ( 'NONE', ( #66 ) ) ;
#182 = FACE_BOUND ( 'NONE', #181, .T. ) ;
#183 = VERTEX_POINT ( 'NONE', #201 ) ;
#184 = APPLICATION_PROTOCOL_DEFINITION ( 'international standard', 'config_control_design', 1994, #58 ) ;
#185 = ADVANCED_FACE ( 'NONE', ( #182, #22 ), #65, .T. ) ;
#186 = PLANE ( 'NONE',  #121 ) ;
#187 = CIRCLE ( 'NONE', #27, 3.000000000000000000 ) ;
#188 = DIRECTION ( 'NONE',  ( 3.491481338843133355E-15, -1.217917285207545432E-16, 1.000000000000000000 ) ) ;
#189 = EDGE_CURVE ( 'NONE', #173, #173, #198, .T. ) ;
#190 = PRODUCT_DEFINITION ( 'UNKNOWN', '', #11, #72 ) ;
#191 = CARTESIAN_POINT ( 'NONE',  ( 0.0000000000000000000, 0.0000000000000000000, 0.0000000000000000000 ) ) ;
#192 = FACE_BOUND ( 'NONE', #196, .T. ) ;
#193 = CARTESIAN_POINT ( 'NONE',  ( 6.982962677686242059E-16, -2.435834570415082606E-17, 0.1999999999999993172 ) ) ;
#194 = CLOSED_SHELL ( 'NONE', ( #176, #205, #185, #16 ) ) ;
#195 = DIRECTION ( 'NONE',  ( 3.491481338843133355E-15, -1.217917285207545432E-16, 1.000000000000000000 ) ) ;
#196 = EDGE_LOOP ( 'NONE', ( #38 ) ) ;
#197 = DIRECTION ( 'NONE',  ( 3.491481338843133355E-15, -1.217917285207545432E-16, 1.000000000000000000 ) ) ;
#198 = CIRCLE ( 'NONE', #165, 2.999999999999999556 ) ;
#199 = LOCAL_TIME ( 11, 20, 14.00000000000000000, #95 ) ;
#200 = VERTEX_POINT ( 'NONE', #171 ) ;
#201 = CARTESIAN_POINT ( 'NONE',  ( 5.237222008264700033E-14, 2.999999999999997780, 15.00000000000000000 ) ) ;
#202 = DIRECTION ( 'NONE',  ( -4.172848212839010723E-31, -1.000000000000000000, -1.174552353525963055E-16 ) ) ;
#203 = CALENDAR_DATE ( 2021, 17, 11 ) ;
#204 = COORDINATED_UNIVERSAL_TIME_OFFSET ( 1, 0, .AHEAD. ) ;
#205 = ADVANCED_FACE ( 'NONE', ( #152 ), #186, .T. ) ;
#206 = EDGE_LOOP ( 'NONE', ( #56 ) ) ;
#207 = CC_DESIGN_DATE_AND_TIME_ASSIGNMENT ( #45, #117, ( #146 ) ) ;
#208 = FACE_OUTER_BOUND ( 'NONE', #6, .T. ) ;
#209 = AXIS2_PLACEMENT_3D ( 'NONE', #127, #103, #19 ) ;
#210 = DIRECTION ( 'NONE',  ( -3.491481338843133355E-15, 1.224646799147353207E-16, -1.000000000000000000 ) ) ;
#211 = FACE_OUTER_BOUND ( 'NONE', #44, .T. ) ;
#212 = EDGE_CURVE ( 'NONE', #200, #200, #154, .T. ) ;
#213 = DIRECTION ( 'NONE',  ( 4.275831445896959482E-31, 1.000000000000000000, 1.224646799147353207E-16 ) ) ;
#214 = AXIS2_PLACEMENT_3D ( 'NONE', #34, #88, #86 ) ;
#215 = FACE_OUTER_BOUND ( 'NONE', #164, .T. ) ;
#216 = DIRECTION ( 'NONE',  ( 0.0000000000000000000, 0.0000000000000000000, 1.000000000000000000 ) ) ;
#217 = COORDINATED_UNIVERSAL_TIME_OFFSET ( 1, 0, .AHEAD. ) ;
#218 = LOCAL_TIME ( 11, 20, 14.00000000000000000, #157 ) ;
#219 = APPROVAL_DATE_TIME ( #129, #151 ) ;
#220 = CARTESIAN_POINT ( 'NONE',  ( 6.982962677686230226E-16, -3.000000000000000000, 0.1999999999999989564 ) ) ;
#221 = DIRECTION ( 'NONE',  ( 3.491481338843133355E-15, -1.224646799147353207E-16, 1.000000000000000000 ) ) ;
#222 = AXIS2_PLACEMENT_3D ( 'NONE', #69, #122, #147 ) ;
#223 = SECURITY_CLASSIFICATION_LEVEL ( 'unclassified' ) ;
ENDSEC;
END-ISO-10303-21;
