ISO-10303-21;
HEADER;
FILE_DESCRIPTION (( 'STEP AP203' ),
    '1' );
FILE_NAME ('61392.step',
    '2021-10-08T05:16:11',
    ( '' ),
    ( '' ),
    'SwSTEP 2.0',
    'SolidWorks 2019',
    '' );
FILE_SCHEMA (( 'CONFIG_CONTROL_DESIGN' ));
ENDSEC;

DATA;
#1 = APPROVAL_PERSON_ORGANIZATION ( #52, #58, #51 ) ;
#2 =( NAMED_UNIT ( * ) PLANE_ANGLE_UNIT ( ) SI_UNIT ( $, .RADIAN. ) );
#3 = DIRECTION ( 'NONE',  ( 0.0000000000000000000, 0.0000000000000000000, 1.000000000000000000 ) ) ;
#4 = COORDINATED_UNIVERSAL_TIME_OFFSET ( 1, 0, .AHEAD. ) ;
#5 = CIRCLE ( 'NONE', #114, 0.9049999999999950306 ) ;
#6 = DIRECTION ( 'NONE',  ( -3.491481338843133355E-15, 1.224646799147353207E-16, -1.000000000000000000 ) ) ;
#7 = ADVANCED_FACE ( 'NONE', ( #162, #9 ), #213, .T. ) ;
#8 = FACE_OUTER_BOUND ( 'NONE', #15, .T. ) ;
#9 = FACE_BOUND ( 'NONE', #158, .T. ) ;
#10 = PLANE ( 'NONE',  #99 ) ;
#11 = CARTESIAN_POINT ( 'NONE',  ( 1.326762908760390423E-13, -4.653657836759941941E-15, 38.00000000000000000 ) ) ;
#12 = CARTESIAN_POINT ( 'NONE',  ( 4.189777606611760026E-14, -1.469576158976823947E-15, 12.00000000000000000 ) ) ;
#13 = CONICAL_SURFACE ( 'NONE', #19, 0.9999999999999970024, 0.5235987755982904890 ) ;
#14 = CYLINDRICAL_SURFACE ( 'NONE', #43, 0.9049999999999943645 ) ;
#15 = EDGE_LOOP ( 'NONE', ( #214 ) ) ;
#16 = PRODUCT_DEFINITION_SHAPE ( 'NONE', 'NONE',  #118 ) ;
#17 = DIRECTION ( 'NONE',  ( 0.0000000000000000000, 1.000000000000000000, 0.0000000000000000000 ) ) ;
#18 = DATE_TIME_ROLE ( 'classification_date' ) ;
#19 = AXIS2_PLACEMENT_3D ( 'NONE', #124, #106, #112 ) ;
#20 = CALENDAR_DATE ( 2021, 8, 10 ) ;
#21 = PRODUCT_RELATED_PRODUCT_CATEGORY ( 'detail', '', ( #148 ) ) ;
#22 = PERSON_AND_ORGANIZATION ( #175, #136 ) ;
#23 = EDGE_LOOP ( 'NONE', ( #194 ) ) ;
#24 = APPROVAL_ROLE ( '' ) ;
#25 = LOCAL_TIME ( 7, 16, 11.00000000000000000, #4 ) ;
#26 = EDGE_LOOP ( 'NONE', ( #44 ) ) ;
#27 = AXIS2_PLACEMENT_3D ( 'NONE', #78, #62, #130 ) ;
#28 = EDGE_LOOP ( 'NONE', ( #128 ) ) ;
#29 = VERTEX_POINT ( 'NONE', #168 ) ;
#30 = FACE_OUTER_BOUND ( 'NONE', #28, .T. ) ;
#31 = ADVANCED_FACE ( 'NONE', ( #211 ), #139, .T. ) ;
#32 = CARTESIAN_POINT ( 'NONE',  ( 1.319779946082704535E-13, 0.9999999999999965583, 37.79999999999999716 ) ) ;
#33 = AXIS2_PLACEMENT_3D ( 'NONE', #149, #181, #147 ) ;
#34 =( NAMED_UNIT ( * ) SI_UNIT ( $, .STERADIAN. ) SOLID_ANGLE_UNIT ( ) );
#35 = CC_DESIGN_PERSON_AND_ORGANIZATION_ASSIGNMENT ( #117, #188, ( #118 ) ) ;
#36 = APPROVAL_DATE_TIME ( #115, #126 ) ;
#37 = AXIS2_PLACEMENT_3D ( 'NONE', #46, #113, #121 ) ;
#38 = UNCERTAINTY_MEASURE_WITH_UNIT (LENGTH_MEASURE( 1.000000000000000082E-05 ), #81, 'distance_accuracy_value', 'NONE');
#39 = FACE_OUTER_BOUND ( 'NONE', #87, .T. ) ;
#40 = AXIS2_PLACEMENT_3D ( 'NONE', #208, #156, #55 ) ;
#41 = EDGE_LOOP ( 'NONE', ( #196 ) ) ;
#42 = CLOSED_SHELL ( 'NONE', ( #212, #103, #61, #7, #180 ) ) ;
#43 = AXIS2_PLACEMENT_3D ( 'NONE', #127, #198, #91 ) ;
#44 = ORIENTED_EDGE ( 'NONE', *, *, #68, .T. ) ;
#45 = EDGE_CURVE ( 'NONE', #29, #29, #5, .T. ) ;
#46 = CARTESIAN_POINT ( 'NONE',  ( 4.189777606611760026E-14, 6.786413016544845737E-33, 12.00000000000000000 ) ) ;
#47 = SECURITY_CLASSIFICATION_LEVEL ( 'unclassified' ) ;
#48 = CC_DESIGN_SECURITY_CLASSIFICATION ( #203, ( #53 ) ) ;
#49 = CARTESIAN_POINT ( 'NONE',  ( 4.189777606611760026E-14, -1.469576158976823947E-15, 12.00000000000000000 ) ) ;
#50 = CALENDAR_DATE ( 2021, 8, 10 ) ;
#51 = APPROVAL_ROLE ( '' ) ;
#52 = PERSON_AND_ORGANIZATION ( #175, #136 ) ;
#53 = PRODUCT_DEFINITION_FORMATION_WITH_SPECIFIED_SOURCE ( 'ANY', '', #148, .NOT_KNOWN. ) ;
#54 = APPROVAL_ROLE ( '' ) ;
#55 = DIRECTION ( 'NONE',  ( 4.275831445896957731E-31, 1.000000000000000000, 1.224646799147353207E-16 ) ) ;
#56 = ADVANCED_BREP_SHAPE_REPRESENTATION ( '61392', ( #123, #197, #160 ), #131 ) ;
#57 = AXIS2_PLACEMENT_3D ( 'NONE', #59, #104, #202 ) ;
#58 = APPROVAL ( #82, 'UNSPECIFIED' ) ;
#59 = CARTESIAN_POINT ( 'NONE',  ( 1.898593742915324291E-15, -6.659370406123507339E-17, 0.5437788602199442600 ) ) ;
#60 = ADVANCED_FACE ( 'NONE', ( #116 ), #90, .T. ) ;
#61 = ADVANCED_FACE ( 'NONE', ( #174, #39 ), #70, .T. ) ;
#62 = DIRECTION ( 'NONE',  ( -3.491481338843133355E-15, 1.224646799147353207E-16, -1.000000000000000000 ) ) ;
#63 = DIRECTION ( 'NONE',  ( -3.491481338843133355E-15, 1.224646799147353207E-16, -1.000000000000000000 ) ) ;
#64 = FACE_OUTER_BOUND ( 'NONE', #192, .T. ) ;
#65 = CALENDAR_DATE ( 2021, 8, 10 ) ;
#66 = MECHANICAL_CONTEXT ( 'NONE', #79, 'mechanical' ) ;
#67 = AXIS2_PLACEMENT_3D ( 'NONE', #11, #6, #71 ) ;
#68 = EDGE_CURVE ( 'NONE', #89, #89, #119, .T. ) ;
#69 = PERSON_AND_ORGANIZATION ( #175, #136 ) ;
#70 = CYLINDRICAL_SURFACE ( 'NONE', #40, 0.9999999999999991118 ) ;
#71 = DIRECTION ( 'NONE',  ( 0.0000000000000000000, 1.000000000000000000, 0.0000000000000000000 ) ) ;
#72 = AXIS2_PLACEMENT_3D ( 'NONE', #161, #220, #201 ) ;
#73 = DIRECTION ( 'NONE',  ( -4.275831445896958607E-31, -1.000000000000000000, -1.224646799147353207E-16 ) ) ;
#74 = ORIENTED_EDGE ( 'NONE', *, *, #195, .T. ) ;
#75 = DIRECTION ( 'NONE',  ( -3.491481338843133355E-15, 1.224646799147353207E-16, -1.000000000000000000 ) ) ;
#76 = CC_DESIGN_DATE_AND_TIME_ASSIGNMENT ( #94, #18, ( #203 ) ) ;
#77 = CIRCLE ( 'NONE', #101, 0.9049999999999950306 ) ;
#78 = CARTESIAN_POINT ( 'NONE',  ( 1.326762908760390423E-13, 5.999039130647368167E-33, 38.00000000000000000 ) ) ;
#79 = APPLICATION_CONTEXT ( 'configuration controlled 3d designs of mechanical parts and assemblies' ) ;
#80 = VERTEX_POINT ( 'NONE', #217 ) ;
#81 =( LENGTH_UNIT ( ) NAMED_UNIT ( * ) SI_UNIT ( .MILLI., .METRE. ) );
#82 = APPROVAL_STATUS ( 'not_yet_approved' ) ;
#83 = APPLICATION_PROTOCOL_DEFINITION ( 'international standard', 'config_control_design', 1994, #79 ) ;
#84 = DIRECTION ( 'NONE',  ( 1.000000000000000000, 0.0000000000000000000, 0.0000000000000000000 ) ) ;
#85 = LOCAL_TIME ( 7, 16, 11.00000000000000000, #173 ) ;
#86 = DESIGN_CONTEXT ( 'detailed design', #190, 'design' ) ;
#87 = EDGE_LOOP ( 'NONE', ( #216 ) ) ;
#88 = EDGE_LOOP ( 'NONE', ( #107 ) ) ;
#89 = VERTEX_POINT ( 'NONE', #163 ) ;
#90 = PLANE ( 'NONE',  #37 ) ;
#91 = DIRECTION ( 'NONE',  ( 4.275831445896957731E-31, 1.000000000000000000, 1.224646799147353207E-16 ) ) ;
#92 = CC_DESIGN_APPROVAL ( #126, ( #118 ) ) ;
#93 = DIRECTION ( 'NONE',  ( 3.491481338843133355E-15, -1.224646799147353207E-16, 1.000000000000000000 ) ) ;
#94 = DATE_AND_TIME ( #65, #199 ) ;
#95 = CLOSED_SHELL ( 'NONE', ( #31, #110, #60 ) ) ;
#96 = PERSON_AND_ORGANIZATION_ROLE ( 'creator' ) ;
#97 = APPROVAL_DATE_TIME ( #169, #179 ) ;
#98 = CALENDAR_DATE ( 2021, 8, 10 ) ;
#99 = AXIS2_PLACEMENT_3D ( 'NONE', #111, #93, #73 ) ;
#100 = DIRECTION ( 'NONE',  ( -3.491481338843133355E-15, 1.224646799147353207E-16, -1.000000000000000000 ) ) ;
#101 = AXIS2_PLACEMENT_3D ( 'NONE', #12, #63, #108 ) ;
#102 = CC_DESIGN_PERSON_AND_ORGANIZATION_ASSIGNMENT ( #205, #206, ( #53 ) ) ;
#103 = ADVANCED_FACE ( 'NONE', ( #145, #141 ), #13, .T. ) ;
#104 = DIRECTION ( 'NONE',  ( 3.491481338843133355E-15, -1.224646799147353207E-16, 1.000000000000000000 ) ) ;
#105 = CC_DESIGN_APPROVAL ( #179, ( #53 ) ) ;
#106 = DIRECTION ( 'NONE',  ( 3.491481338843133355E-15, -1.224646799147353207E-16, 1.000000000000000000 ) ) ;
#107 = ORIENTED_EDGE ( 'NONE', *, *, #195, .F. ) ;
#108 = DIRECTION ( 'NONE',  ( 0.0000000000000000000, 1.000000000000000000, 0.0000000000000000000 ) ) ;
#109 = CC_DESIGN_APPROVAL ( #58, ( #203 ) ) ;
#110 = ADVANCED_FACE ( 'NONE', ( #30, #8 ), #14, .T. ) ;
#111 = CARTESIAN_POINT ( 'NONE',  ( 4.189777606611760026E-14, 6.786413016544845737E-33, 12.00000000000000000 ) ) ;
#112 = DIRECTION ( 'NONE',  ( 0.0000000000000000000, -1.000000000000000000, 0.0000000000000000000 ) ) ;
#113 = DIRECTION ( 'NONE',  ( 3.491481338843133355E-15, -1.224646799147353207E-16, 1.000000000000000000 ) ) ;
#114 = AXIS2_PLACEMENT_3D ( 'NONE', #49, #221, #17 ) ;
#115 = DATE_AND_TIME ( #98, #143 ) ;
#116 = FACE_OUTER_BOUND ( 'NONE', #125, .T. ) ;
#117 = PERSON_AND_ORGANIZATION ( #175, #136 ) ;
#118 = PRODUCT_DEFINITION ( 'UNKNOWN', '', #53, #86 ) ;
#119 = CIRCLE ( 'NONE', #218, 0.9999999999999970024 ) ;
#120 = DATE_TIME_ROLE ( 'creation_date' ) ;
#121 = DIRECTION ( 'NONE',  ( -4.275831445896958607E-31, -1.000000000000000000, -1.224646799147353207E-16 ) ) ;
#122 = ORIENTED_EDGE ( 'NONE', *, *, #207, .T. ) ;
#123 = MANIFOLD_SOLID_BREP ( 'Corps-Déplacer/Copier1[1]', #42 ) ;
#124 = CARTESIAN_POINT ( 'NONE',  ( 4.247228125801033871E-14, -1.489727088512597815E-15, 12.16454482671904991 ) ) ;
#125 = EDGE_LOOP ( 'NONE', ( #138 ) ) ;
#126 = APPROVAL ( #186, 'UNSPECIFIED' ) ;
#127 = CARTESIAN_POINT ( 'NONE',  ( 0.0000000000000000000, 0.0000000000000000000, 0.0000000000000000000 ) ) ;
#128 = ORIENTED_EDGE ( 'NONE', *, *, #222, .F. ) ;
#129 = VERTEX_POINT ( 'NONE', #32 ) ;
#130 = DIRECTION ( 'NONE',  ( 4.275831445896958607E-31, 1.000000000000000000, 1.224646799147353207E-16 ) ) ;
#131 =( GEOMETRIC_REPRESENTATION_CONTEXT ( 3 ) GLOBAL_UNCERTAINTY_ASSIGNED_CONTEXT ( ( #38 ) ) GLOBAL_UNIT_ASSIGNED_CONTEXT ( ( #81, #2, #34 ) ) REPRESENTATION_CONTEXT ( 'NONE', 'WORKASPACE' ) );
#132 = APPROVAL_STATUS ( 'not_yet_approved' ) ;
#133 = PERSON_AND_ORGANIZATION ( #175, #136 ) ;
#134 = CC_DESIGN_PERSON_AND_ORGANIZATION_ASSIGNMENT ( #151, #154, ( #203 ) ) ;
#135 = PERSON_AND_ORGANIZATION ( #175, #136 ) ;
#136 = ORGANIZATION ( 'UNSPECIFIED', 'UNSPECIFIED', '' ) ;
#137 = APPLICATION_PROTOCOL_DEFINITION ( 'international standard', 'config_control_design', 1994, #190 ) ;
#138 = ORIENTED_EDGE ( 'NONE', *, *, #45, .F. ) ;
#139 = CONICAL_SURFACE ( 'NONE', #57, 0.9049999999999938094, 1.029744258676649649 ) ;
#140 = DATE_AND_TIME ( #20, #85 ) ;
#141 = FACE_OUTER_BOUND ( 'NONE', #26, .T. ) ;
#142 = EDGE_LOOP ( 'NONE', ( #182 ) ) ;
#143 = LOCAL_TIME ( 7, 16, 11.00000000000000000, #155 ) ;
#144 = VERTEX_POINT ( 'NONE', #200 ) ;
#145 = FACE_BOUND ( 'NONE', #41, .T. ) ;
#146 = EDGE_LOOP ( 'NONE', ( #183 ) ) ;
#147 = DIRECTION ( 'NONE',  ( 0.0000000000000000000, 1.000000000000000000, 0.0000000000000000000 ) ) ;
#148 = PRODUCT ( '61392', '61392', '', ( #66 ) ) ;
#149 = CARTESIAN_POINT ( 'NONE',  ( 1.319779946082704535E-13, -4.629164900776995227E-15, 37.79999999999999716 ) ) ;
#150 = VERTEX_POINT ( 'NONE', #215 ) ;
#151 = PERSON_AND_ORGANIZATION ( #175, #136 ) ;
#152 = CIRCLE ( 'NONE', #33, 1.000000000000001110 ) ;
#153 = CARTESIAN_POINT ( 'NONE',  ( 0.0000000000000000000, 0.0000000000000000000, 0.0000000000000000000 ) ) ;
#154 = PERSON_AND_ORGANIZATION_ROLE ( 'classification_officer' ) ;
#155 = COORDINATED_UNIVERSAL_TIME_OFFSET ( 1, 0, .AHEAD. ) ;
#156 = DIRECTION ( 'NONE',  ( -3.491481338843133355E-15, 1.224646799147353207E-16, -1.000000000000000000 ) ) ;
#157 = CC_DESIGN_PERSON_AND_ORGANIZATION_ASSIGNMENT ( #69, #96, ( #53 ) ) ;
#158 = EDGE_LOOP ( 'NONE', ( #74 ) ) ;
#159 = FACE_OUTER_BOUND ( 'NONE', #88, .T. ) ;
#160 = AXIS2_PLACEMENT_3D ( 'NONE', #153, #3, #84 ) ;
#161 = CARTESIAN_POINT ( 'NONE',  ( 1.898593742915324291E-15, -6.659370406123507339E-17, 0.5437788602199442600 ) ) ;
#162 = FACE_OUTER_BOUND ( 'NONE', #146, .T. ) ;
#163 = CARTESIAN_POINT ( 'NONE',  ( 4.247228125801033871E-14, 0.9999999999999954481, 12.16454482671904991 ) ) ;
#164 = DIRECTION ( 'NONE',  ( 0.0000000000000000000, 1.000000000000000000, 0.0000000000000000000 ) ) ;
#165 = PLANE ( 'NONE',  #27 ) ;
#166 = CC_DESIGN_DATE_AND_TIME_ASSIGNMENT ( #171, #120, ( #118 ) ) ;
#167 = CIRCLE ( 'NONE', #72, 0.9049999999999938094 ) ;
#168 = CARTESIAN_POINT ( 'NONE',  ( 4.189777606611760026E-14, 0.9049999999999934763, 12.00000000000000000 ) ) ;
#169 = DATE_AND_TIME ( #50, #25 ) ;
#170 = CC_DESIGN_PERSON_AND_ORGANIZATION_ASSIGNMENT ( #133, #191, ( #148 ) ) ;
#171 = DATE_AND_TIME ( #189, #193 ) ;
#172 = AXIS2_PLACEMENT_3D ( 'NONE', #184, #75, #219 ) ;
#173 = COORDINATED_UNIVERSAL_TIME_OFFSET ( 1, 0, .AHEAD. ) ;
#174 = FACE_OUTER_BOUND ( 'NONE', #142, .T. ) ;
#175 = PERSON ( 'UNSPECIFIED', 'UNSPECIFIED', 'UNSPECIFIED', ('UNSPECIFIED'), ('UNSPECIFIED'), ('UNSPECIFIED') ) ;
#176 = COORDINATED_UNIVERSAL_TIME_OFFSET ( 1, 0, .AHEAD. ) ;
#177 = CARTESIAN_POINT ( 'NONE',  ( 4.247228125801033871E-14, -1.489727088512597815E-15, 12.16454482671904991 ) ) ;
#178 = APPROVAL_DATE_TIME ( #140, #58 ) ;
#179 = APPROVAL ( #132, 'UNSPECIFIED' ) ;
#180 = ADVANCED_FACE ( 'NONE', ( #159 ), #165, .F. ) ;
#181 = DIRECTION ( 'NONE',  ( -3.491481338843133355E-15, 1.224646799147353207E-16, -1.000000000000000000 ) ) ;
#182 = ORIENTED_EDGE ( 'NONE', *, *, #68, .F. ) ;
#183 = ORIENTED_EDGE ( 'NONE', *, *, #187, .F. ) ;
#184 = CARTESIAN_POINT ( 'NONE',  ( 1.326762908760390423E-13, -4.653657836759941941E-15, 38.00000000000000000 ) ) ;
#185 = APPROVAL_PERSON_ORGANIZATION ( #22, #179, #24 ) ;
#186 = APPROVAL_STATUS ( 'not_yet_approved' ) ;
#187 = EDGE_CURVE ( 'NONE', #129, #129, #152, .T. ) ;
#188 = PERSON_AND_ORGANIZATION_ROLE ( 'creator' ) ;
#189 = CALENDAR_DATE ( 2021, 8, 10 ) ;
#190 = APPLICATION_CONTEXT ( 'configuration controlled 3d designs of mechanical parts and assemblies' ) ;
#191 = PERSON_AND_ORGANIZATION_ROLE ( 'design_owner' ) ;
#192 = EDGE_LOOP ( 'NONE', ( #122 ) ) ;
#193 = LOCAL_TIME ( 7, 16, 11.00000000000000000, #176 ) ;
#194 = ORIENTED_EDGE ( 'NONE', *, *, #222, .T. ) ;
#195 = EDGE_CURVE ( 'NONE', #80, #80, #204, .T. ) ;
#196 = ORIENTED_EDGE ( 'NONE', *, *, #207, .F. ) ;
#197 = MANIFOLD_SOLID_BREP ( 'Corps-Déplacer/Copier1[2]', #95 ) ;
#198 = DIRECTION ( 'NONE',  ( -3.491481338843133355E-15, 1.224646799147353207E-16, -1.000000000000000000 ) ) ;
#199 = LOCAL_TIME ( 7, 16, 11.00000000000000000, #223 ) ;
#200 = CARTESIAN_POINT ( 'NONE',  ( 4.189777606611760026E-14, 0.9049999999999934763, 12.00000000000000000 ) ) ;
#201 = DIRECTION ( 'NONE',  ( 4.256198772126517246E-31, 1.000000000000000000, 1.198013450260234105E-16 ) ) ;
#202 = DIRECTION ( 'NONE',  ( -4.256198772126517246E-31, -1.000000000000000000, -1.198013450260234105E-16 ) ) ;
#203 = SECURITY_CLASSIFICATION ( '', '', #47 ) ;
#204 = CIRCLE ( 'NONE', #172, 0.8000000000000010436 ) ;
#205 = PERSON_AND_ORGANIZATION ( #175, #136 ) ;
#206 = PERSON_AND_ORGANIZATION_ROLE ( 'design_supplier' ) ;
#207 = EDGE_CURVE ( 'NONE', #144, #144, #77, .T. ) ;
#208 = CARTESIAN_POINT ( 'NONE',  ( 0.0000000000000000000, 0.0000000000000000000, 0.0000000000000000000 ) ) ;
#209 = SHAPE_DEFINITION_REPRESENTATION ( #16, #56 ) ;
#210 = APPROVAL_PERSON_ORGANIZATION ( #135, #126, #54 ) ;
#211 = FACE_OUTER_BOUND ( 'NONE', #23, .T. ) ;
#212 = ADVANCED_FACE ( 'NONE', ( #64 ), #10, .F. ) ;
#213 = CONICAL_SURFACE ( 'NONE', #67, 0.8000000000000010436, 0.7853981633974516097 ) ;
#214 = ORIENTED_EDGE ( 'NONE', *, *, #45, .T. ) ;
#215 = CARTESIAN_POINT ( 'NONE',  ( 1.898593742915324685E-15, 0.9049999999999936984, 0.5437788602199443710 ) ) ;
#216 = ORIENTED_EDGE ( 'NONE', *, *, #187, .T. ) ;
#217 = CARTESIAN_POINT ( 'NONE',  ( 1.326762908760390423E-13, 0.7999999999999963807, 38.00000000000000000 ) ) ;
#218 = AXIS2_PLACEMENT_3D ( 'NONE', #177, #100, #164 ) ;
#219 = DIRECTION ( 'NONE',  ( 0.0000000000000000000, 1.000000000000000000, 0.0000000000000000000 ) ) ;
#220 = DIRECTION ( 'NONE',  ( -3.491481338843133355E-15, 1.224646799147353207E-16, -1.000000000000000000 ) ) ;
#221 = DIRECTION ( 'NONE',  ( -3.491481338843133355E-15, 1.224646799147353207E-16, -1.000000000000000000 ) ) ;
#222 = EDGE_CURVE ( 'NONE', #150, #150, #167, .T. ) ;
#223 = COORDINATED_UNIVERSAL_TIME_OFFSET ( 1, 0, .AHEAD. ) ;
ENDSEC;
END-ISO-10303-21;
