ISO-10303-21;
HEADER;
FILE_DESCRIPTION (( 'STEP AP203' ),
    '1' );
FILE_NAME ('61390.step',
    '2021-10-08T05:16:10',
    ( '' ),
    ( '' ),
    'SwSTEP 2.0',
    'SolidWorks 2019',
    '' );
FILE_SCHEMA (( 'CONFIG_CONTROL_DESIGN' ));
ENDSEC;

DATA;
#1 = APPROVAL_DATE_TIME ( #94, #87 ) ;
#2 = PERSON_AND_ORGANIZATION ( #214, #134 ) ;
#3 = APPROVAL_DATE_TIME ( #177, #216 ) ;
#4 = AXIS2_PLACEMENT_3D ( 'NONE', #198, #88, #129 ) ;
#5 = APPLICATION_CONTEXT ( 'configuration controlled 3d designs of mechanical parts and assemblies' ) ;
#6 = CARTESIAN_POINT ( 'NONE',  ( 0.0000000000000000000, 0.0000000000000000000, 0.0000000000000000000 ) ) ;
#7 = EDGE_CURVE ( 'NONE', #219, #219, #182, .T. ) ;
#8 = VERTEX_POINT ( 'NONE', #73 ) ;
#9 = CARTESIAN_POINT ( 'NONE',  ( 1.319779946082704535E-13, -4.629164900776995227E-15, 37.79999999999999716 ) ) ;
#10 = EDGE_LOOP ( 'NONE', ( #178 ) ) ;
#11 = FACE_OUTER_BOUND ( 'NONE', #174, .T. ) ;
#12 = VERTEX_POINT ( 'NONE', #185 ) ;
#13 = PERSON_AND_ORGANIZATION ( #214, #134 ) ;
#14 = ORIENTED_EDGE ( 'NONE', *, *, #7, .T. ) ;
#15 = DIRECTION ( 'NONE',  ( -3.491481338843133355E-15, 1.224646799147353207E-16, -1.000000000000000000 ) ) ;
#16 = DIRECTION ( 'NONE',  ( 1.000000000000000000, 0.0000000000000000000, 0.0000000000000000000 ) ) ;
#17 = CALENDAR_DATE ( 2021, 8, 10 ) ;
#18 = DIRECTION ( 'NONE',  ( -3.491481338843133355E-15, 1.224646799147353207E-16, -1.000000000000000000 ) ) ;
#19 =( NAMED_UNIT ( * ) SI_UNIT ( $, .STERADIAN. ) SOLID_ANGLE_UNIT ( ) );
#20 = AXIS2_PLACEMENT_3D ( 'NONE', #127, #199, #163 ) ;
#21 = DESIGN_CONTEXT ( 'detailed design', #22, 'design' ) ;
#22 = APPLICATION_CONTEXT ( 'configuration controlled 3d designs of mechanical parts and assemblies' ) ;
#23 = LOCAL_TIME ( 7, 16, 10.00000000000000000, #80 ) ;
#24 = EDGE_LOOP ( 'NONE', ( #196 ) ) ;
#25 = PRODUCT_DEFINITION_SHAPE ( 'NONE', 'NONE',  #124 ) ;
#26 = CARTESIAN_POINT ( 'NONE',  ( 1.919572679301128068E-15, -6.732954609506086189E-17, 0.5497874664102196940 ) ) ;
#27 = ADVANCED_FACE ( 'NONE', ( #162, #123 ), #38, .T. ) ;
#28 = CLOSED_SHELL ( 'NONE', ( #205, #27, #83, #52, #184 ) ) ;
#29 = CARTESIAN_POINT ( 'NONE',  ( 4.189777606611760026E-14, 0.9149999999999939293, 12.00000000000000000 ) ) ;
#30 = EDGE_CURVE ( 'NONE', #200, #200, #179, .T. ) ;
#31 = PERSON_AND_ORGANIZATION_ROLE ( 'classification_officer' ) ;
#32 = APPROVAL_STATUS ( 'not_yet_approved' ) ;
#33 = FACE_BOUND ( 'NONE', #111, .T. ) ;
#34 = PERSON_AND_ORGANIZATION_ROLE ( 'creator' ) ;
#35 = DIRECTION ( 'NONE',  ( 0.0000000000000000000, 0.0000000000000000000, 1.000000000000000000 ) ) ;
#36 = ORIENTED_EDGE ( 'NONE', *, *, #30, .F. ) ;
#37 = EDGE_CURVE ( 'NONE', #187, #187, #78, .T. ) ;
#38 = CONICAL_SURFACE ( 'NONE', #156, 0.9999999999999970024, 0.5235987755982919323 ) ;
#39 = AXIS2_PLACEMENT_3D ( 'NONE', #148, #35, #16 ) ;
#40 = ADVANCED_FACE ( 'NONE', ( #154 ), #155, .T. ) ;
#41 = EDGE_LOOP ( 'NONE', ( #160 ) ) ;
#42 = PERSON_AND_ORGANIZATION ( #214, #134 ) ;
#43 = EDGE_LOOP ( 'NONE', ( #209 ) ) ;
#44 = PERSON_AND_ORGANIZATION ( #214, #134 ) ;
#45 = FACE_OUTER_BOUND ( 'NONE', #24, .T. ) ;
#46 = PERSON_AND_ORGANIZATION ( #214, #134 ) ;
#47 = PERSON_AND_ORGANIZATION_ROLE ( 'creator' ) ;
#48 = EDGE_LOOP ( 'NONE', ( #50 ) ) ;
#49 = FACE_OUTER_BOUND ( 'NONE', #201, .T. ) ;
#50 = ORIENTED_EDGE ( 'NONE', *, *, #37, .F. ) ;
#51 = CONICAL_SURFACE ( 'NONE', #58, 0.9149999999999935962, 1.029744258676649871 ) ;
#52 = ADVANCED_FACE ( 'NONE', ( #45, #33 ), #91, .T. ) ;
#53 = CC_DESIGN_PERSON_AND_ORGANIZATION_ASSIGNMENT ( #110, #31, ( #172 ) ) ;
#54 = DIRECTION ( 'NONE',  ( -3.491481338843133355E-15, 1.224646799147353207E-16, -1.000000000000000000 ) ) ;
#55 = CC_DESIGN_APPROVAL ( #164, ( #124 ) ) ;
#56 = CARTESIAN_POINT ( 'NONE',  ( 1.919572679301128068E-15, -6.732954609506086189E-17, 0.5497874664102196940 ) ) ;
#57 = CARTESIAN_POINT ( 'NONE',  ( 4.241180702728478862E-14, 0.9999999999999954481, 12.14722431864336016 ) ) ;
#58 = AXIS2_PLACEMENT_3D ( 'NONE', #26, #84, #159 ) ;
#59 = COORDINATED_UNIVERSAL_TIME_OFFSET ( 1, 0, .AHEAD. ) ;
#60 =( NAMED_UNIT ( * ) PLANE_ANGLE_UNIT ( ) SI_UNIT ( $, .RADIAN. ) );
#61 = DATE_AND_TIME ( #82, #143 ) ;
#62 = AXIS2_PLACEMENT_3D ( 'NONE', #6, #15, #144 ) ;
#63 = APPLICATION_PROTOCOL_DEFINITION ( 'international standard', 'config_control_design', 1994, #22 ) ;
#64 = CARTESIAN_POINT ( 'NONE',  ( 4.241180702728478862E-14, -1.487605938035147924E-15, 12.14722431864336016 ) ) ;
#65 = DIRECTION ( 'NONE',  ( 0.0000000000000000000, -1.000000000000000000, 0.0000000000000000000 ) ) ;
#66 = EDGE_CURVE ( 'NONE', #92, #92, #212, .T. ) ;
#67 = AXIS2_PLACEMENT_3D ( 'NONE', #137, #119, #97 ) ;
#68 = DIRECTION ( 'NONE',  ( -3.491481338843133355E-15, 1.224646799147353207E-16, -1.000000000000000000 ) ) ;
#69 = AXIS2_PLACEMENT_3D ( 'NONE', #81, #68, #181 ) ;
#70 = AXIS2_PLACEMENT_3D ( 'NONE', #64, #141, #140 ) ;
#71 = APPROVAL_PERSON_ORGANIZATION ( #96, #87, #173 ) ;
#72 = CC_DESIGN_PERSON_AND_ORGANIZATION_ASSIGNMENT ( #42, #109, ( #213 ) ) ;
#73 = CARTESIAN_POINT ( 'NONE',  ( 1.919572679301128463E-15, 0.9149999999999934852, 0.5497874664102198050 ) ) ;
#74 = FACE_OUTER_BOUND ( 'NONE', #43, .T. ) ;
#75 = CC_DESIGN_PERSON_AND_ORGANIZATION_ASSIGNMENT ( #46, #47, ( #124 ) ) ;
#76 = DIRECTION ( 'NONE',  ( 4.209682938551364449E-31, 1.000000000000000000, 1.184920407087991221E-16 ) ) ;
#77 = SECURITY_CLASSIFICATION_LEVEL ( 'unclassified' ) ;
#78 = CIRCLE ( 'NONE', #69, 0.9149999999999954836 ) ;
#79 = DATE_TIME_ROLE ( 'classification_date' ) ;
#80 = COORDINATED_UNIVERSAL_TIME_OFFSET ( 1, 0, .AHEAD. ) ;
#81 = CARTESIAN_POINT ( 'NONE',  ( 4.189777606611760026E-14, -1.469576158976823947E-15, 12.00000000000000000 ) ) ;
#82 = CALENDAR_DATE ( 2021, 8, 10 ) ;
#83 = ADVANCED_FACE ( 'NONE', ( #49, #183 ), #139, .T. ) ;
#84 = DIRECTION ( 'NONE',  ( 3.491481338843133355E-15, -1.224646799147353207E-16, 1.000000000000000000 ) ) ;
#85 = AXIS2_PLACEMENT_3D ( 'NONE', #9, #54, #125 ) ;
#86 = FACE_OUTER_BOUND ( 'NONE', #121, .T. ) ;
#87 = APPROVAL ( #32, 'UNSPECIFIED' ) ;
#88 = DIRECTION ( 'NONE',  ( -3.491481338843133355E-15, 1.224646799147353207E-16, -1.000000000000000000 ) ) ;
#89 = ORIENTED_EDGE ( 'NONE', *, *, #66, .T. ) ;
#90 = PLANE ( 'NONE',  #118 ) ;
#91 = CONICAL_SURFACE ( 'NONE', #138, 0.7999999999999996003, 0.7853981633974507215 ) ;
#92 = VERTEX_POINT ( 'NONE', #166 ) ;
#93 = COORDINATED_UNIVERSAL_TIME_OFFSET ( 1, 0, .AHEAD. ) ;
#94 = DATE_AND_TIME ( #17, #23 ) ;
#95 = APPROVAL_PERSON_ORGANIZATION ( #131, #164, #203 ) ;
#96 = PERSON_AND_ORGANIZATION ( #214, #134 ) ;
#97 = DIRECTION ( 'NONE',  ( 0.0000000000000000000, 1.000000000000000000, 0.0000000000000000000 ) ) ;
#98 = APPROVAL_STATUS ( 'not_yet_approved' ) ;
#99 = ORIENTED_EDGE ( 'NONE', *, *, #189, .F. ) ;
#100 = DIRECTION ( 'NONE',  ( 0.0000000000000000000, 1.000000000000000000, 0.0000000000000000000 ) ) ;
#101 = PRODUCT_RELATED_PRODUCT_CATEGORY ( 'detail', '', ( #146 ) ) ;
#102 = UNCERTAINTY_MEASURE_WITH_UNIT (LENGTH_MEASURE( 1.000000000000000082E-05 ), #135, 'distance_accuracy_value', 'NONE');
#103 = ADVANCED_FACE ( 'NONE', ( #86 ), #51, .T. ) ;
#104 = CARTESIAN_POINT ( 'NONE',  ( 4.241180702728478862E-14, -1.487605938035147924E-15, 12.14722431864336016 ) ) ;
#105 = DIRECTION ( 'NONE',  ( 3.491481338843133355E-15, -1.224646799147353207E-16, 1.000000000000000000 ) ) ;
#106 = EDGE_LOOP ( 'NONE', ( #208 ) ) ;
#107 = ADVANCED_BREP_SHAPE_REPRESENTATION ( '61390', ( #120, #202, #39 ), #153 ) ;
#108 = CARTESIAN_POINT ( 'NONE',  ( 4.189777606611760026E-14, 0.9149999999999939293, 12.00000000000000000 ) ) ;
#109 = PERSON_AND_ORGANIZATION_ROLE ( 'design_supplier' ) ;
#110 = PERSON_AND_ORGANIZATION ( #214, #134 ) ;
#111 = EDGE_LOOP ( 'NONE', ( #89 ) ) ;
#112 = COORDINATED_UNIVERSAL_TIME_OFFSET ( 1, 0, .AHEAD. ) ;
#113 = CC_DESIGN_PERSON_AND_ORGANIZATION_ASSIGNMENT ( #2, #133, ( #146 ) ) ;
#114 = APPROVAL_PERSON_ORGANIZATION ( #44, #216, #191 ) ;
#115 = DATE_AND_TIME ( #222, #150 ) ;
#116 = EDGE_LOOP ( 'NONE', ( #36 ) ) ;
#117 = DIRECTION ( 'NONE',  ( 3.491481338843133355E-15, -1.224646799147353207E-16, 1.000000000000000000 ) ) ;
#118 = AXIS2_PLACEMENT_3D ( 'NONE', #157, #105, #220 ) ;
#119 = DIRECTION ( 'NONE',  ( -3.491481338843133355E-15, 1.224646799147353207E-16, -1.000000000000000000 ) ) ;
#120 = MANIFOLD_SOLID_BREP ( 'Corps-Déplacer/Copier1[1]', #28 ) ;
#121 = EDGE_LOOP ( 'NONE', ( #215 ) ) ;
#122 = CC_DESIGN_PERSON_AND_ORGANIZATION_ASSIGNMENT ( #13, #34, ( #213 ) ) ;
#123 = FACE_OUTER_BOUND ( 'NONE', #167, .T. ) ;
#124 = PRODUCT_DEFINITION ( 'UNKNOWN', '', #213, #21 ) ;
#125 = DIRECTION ( 'NONE',  ( 0.0000000000000000000, 1.000000000000000000, 0.0000000000000000000 ) ) ;
#126 = AXIS2_PLACEMENT_3D ( 'NONE', #56, #145, #76 ) ;
#127 = CARTESIAN_POINT ( 'NONE',  ( 0.0000000000000000000, 0.0000000000000000000, 0.0000000000000000000 ) ) ;
#128 = CARTESIAN_POINT ( 'NONE',  ( 4.189777606611760026E-14, 6.861401005677940533E-33, 12.00000000000000000 ) ) ;
#129 = DIRECTION ( 'NONE',  ( 4.275831445896958607E-31, 1.000000000000000000, 1.224646799147353207E-16 ) ) ;
#130 = AXIS2_PLACEMENT_3D ( 'NONE', #128, #186, #204 ) ;
#131 = PERSON_AND_ORGANIZATION ( #214, #134 ) ;
#132 = DATE_AND_TIME ( #190, #192 ) ;
#133 = PERSON_AND_ORGANIZATION_ROLE ( 'design_owner' ) ;
#134 = ORGANIZATION ( 'UNSPECIFIED', 'UNSPECIFIED', '' ) ;
#135 =( LENGTH_UNIT ( ) NAMED_UNIT ( * ) SI_UNIT ( .MILLI., .METRE. ) );
#136 = APPROVAL_STATUS ( 'not_yet_approved' ) ;
#137 = CARTESIAN_POINT ( 'NONE',  ( 4.189777606611760026E-14, -1.469576158976823947E-15, 12.00000000000000000 ) ) ;
#138 = AXIS2_PLACEMENT_3D ( 'NONE', #169, #18, #100 ) ;
#139 = CYLINDRICAL_SURFACE ( 'NONE', #62, 0.9999999999999983347 ) ;
#140 = DIRECTION ( 'NONE',  ( 0.0000000000000000000, 1.000000000000000000, 0.0000000000000000000 ) ) ;
#141 = DIRECTION ( 'NONE',  ( -3.491481338843133355E-15, 1.224646799147353207E-16, -1.000000000000000000 ) ) ;
#142 = PLANE ( 'NONE',  #4 ) ;
#143 = LOCAL_TIME ( 7, 16, 10.00000000000000000, #93 ) ;
#144 = DIRECTION ( 'NONE',  ( 4.275831445896958607E-31, 1.000000000000000000, 1.224646799147353207E-16 ) ) ;
#145 = DIRECTION ( 'NONE',  ( -3.491481338843133355E-15, 1.224646799147353207E-16, -1.000000000000000000 ) ) ;
#146 = PRODUCT ( '61390', '61390', '', ( #175 ) ) ;
#147 = COORDINATED_UNIVERSAL_TIME_OFFSET ( 1, 0, .AHEAD. ) ;
#148 = CARTESIAN_POINT ( 'NONE',  ( 0.0000000000000000000, 0.0000000000000000000, 0.0000000000000000000 ) ) ;
#149 = CARTESIAN_POINT ( 'NONE',  ( 1.326762908760390423E-13, -4.653657836759941941E-15, 38.00000000000000000 ) ) ;
#150 = LOCAL_TIME ( 7, 16, 10.00000000000000000, #59 ) ;
#151 = APPLICATION_PROTOCOL_DEFINITION ( 'international standard', 'config_control_design', 1994, #5 ) ;
#152 = AXIS2_PLACEMENT_3D ( 'NONE', #149, #206, #176 ) ;
#153 =( GEOMETRIC_REPRESENTATION_CONTEXT ( 3 ) GLOBAL_UNCERTAINTY_ASSIGNED_CONTEXT ( ( #102 ) ) GLOBAL_UNIT_ASSIGNED_CONTEXT ( ( #135, #60, #19 ) ) REPRESENTATION_CONTEXT ( 'NONE', 'WORKASPACE' ) );
#154 = FACE_OUTER_BOUND ( 'NONE', #116, .T. ) ;
#155 = PLANE ( 'NONE',  #130 ) ;
#156 = AXIS2_PLACEMENT_3D ( 'NONE', #104, #117, #65 ) ;
#157 = CARTESIAN_POINT ( 'NONE',  ( 4.189777606611760026E-14, 6.861401005677940533E-33, 12.00000000000000000 ) ) ;
#158 = LOCAL_TIME ( 7, 16, 10.00000000000000000, #112 ) ;
#159 = DIRECTION ( 'NONE',  ( -4.209682938551364449E-31, -1.000000000000000000, -1.184920407087991221E-16 ) ) ;
#160 = ORIENTED_EDGE ( 'NONE', *, *, #37, .T. ) ;
#161 = FACE_OUTER_BOUND ( 'NONE', #41, .T. ) ;
#162 = FACE_BOUND ( 'NONE', #48, .T. ) ;
#163 = DIRECTION ( 'NONE',  ( 4.275831445896958607E-31, 1.000000000000000000, 1.224646799147352961E-16 ) ) ;
#164 = APPROVAL ( #136, 'UNSPECIFIED' ) ;
#165 = CC_DESIGN_APPROVAL ( #216, ( #213 ) ) ;
#166 = CARTESIAN_POINT ( 'NONE',  ( 1.326762908760390423E-13, 0.7999999999999949374, 38.00000000000000000 ) ) ;
#167 = EDGE_LOOP ( 'NONE', ( #14 ) ) ;
#168 = APPROVAL_DATE_TIME ( #61, #164 ) ;
#169 = CARTESIAN_POINT ( 'NONE',  ( 1.326762908760390423E-13, -4.653657836759941941E-15, 38.00000000000000000 ) ) ;
#170 = EDGE_CURVE ( 'NONE', #12, #12, #195, .T. ) ;
#171 = SHAPE_DEFINITION_REPRESENTATION ( #25, #107 ) ;
#172 = SECURITY_CLASSIFICATION ( '', '', #77 ) ;
#173 = APPROVAL_ROLE ( '' ) ;
#174 = EDGE_LOOP ( 'NONE', ( #99 ) ) ;
#175 = MECHANICAL_CONTEXT ( 'NONE', #5, 'mechanical' ) ;
#176 = DIRECTION ( 'NONE',  ( 0.0000000000000000000, 1.000000000000000000, 0.0000000000000000000 ) ) ;
#177 = DATE_AND_TIME ( #188, #158 ) ;
#178 = ORIENTED_EDGE ( 'NONE', *, *, #170, .T. ) ;
#179 = CIRCLE ( 'NONE', #67, 0.9149999999999954836 ) ;
#180 = CLOSED_SHELL ( 'NONE', ( #103, #210, #40 ) ) ;
#181 = DIRECTION ( 'NONE',  ( 0.0000000000000000000, 1.000000000000000000, 0.0000000000000000000 ) ) ;
#182 = CIRCLE ( 'NONE', #70, 0.9999999999999970024 ) ;
#183 = FACE_OUTER_BOUND ( 'NONE', #10, .T. ) ;
#184 = ADVANCED_FACE ( 'NONE', ( #197 ), #142, .F. ) ;
#185 = CARTESIAN_POINT ( 'NONE',  ( 1.319779946082704535E-13, 0.9999999999999947820, 37.79999999999999716 ) ) ;
#186 = DIRECTION ( 'NONE',  ( 3.491481338843133355E-15, -1.224646799147353207E-16, 1.000000000000000000 ) ) ;
#187 = VERTEX_POINT ( 'NONE', #29 ) ;
#188 = CALENDAR_DATE ( 2021, 8, 10 ) ;
#189 = EDGE_CURVE ( 'NONE', #8, #8, #223, .T. ) ;
#190 = CALENDAR_DATE ( 2021, 8, 10 ) ;
#191 = APPROVAL_ROLE ( '' ) ;
#192 = LOCAL_TIME ( 7, 16, 10.00000000000000000, #147 ) ;
#193 = DATE_TIME_ROLE ( 'creation_date' ) ;
#194 = CC_DESIGN_DATE_AND_TIME_ASSIGNMENT ( #132, #79, ( #172 ) ) ;
#195 = CIRCLE ( 'NONE', #85, 0.9999999999999993339 ) ;
#196 = ORIENTED_EDGE ( 'NONE', *, *, #170, .F. ) ;
#197 = FACE_OUTER_BOUND ( 'NONE', #106, .T. ) ;
#198 = CARTESIAN_POINT ( 'NONE',  ( 1.326762908760390423E-13, 5.999039130647358587E-33, 38.00000000000000000 ) ) ;
#199 = DIRECTION ( 'NONE',  ( -3.491481338843133355E-15, 1.224646799147353207E-16, -1.000000000000000000 ) ) ;
#200 = VERTEX_POINT ( 'NONE', #108 ) ;
#201 = EDGE_LOOP ( 'NONE', ( #221 ) ) ;
#202 = MANIFOLD_SOLID_BREP ( 'Corps-Déplacer/Copier1[2]', #180 ) ;
#203 = APPROVAL_ROLE ( '' ) ;
#204 = DIRECTION ( 'NONE',  ( -4.275831445896958607E-31, -1.000000000000000000, -1.224646799147353207E-16 ) ) ;
#205 = ADVANCED_FACE ( 'NONE', ( #161 ), #90, .F. ) ;
#206 = DIRECTION ( 'NONE',  ( -3.491481338843133355E-15, 1.224646799147353207E-16, -1.000000000000000000 ) ) ;
#207 = CC_DESIGN_APPROVAL ( #87, ( #172 ) ) ;
#208 = ORIENTED_EDGE ( 'NONE', *, *, #66, .F. ) ;
#209 = ORIENTED_EDGE ( 'NONE', *, *, #30, .T. ) ;
#210 = ADVANCED_FACE ( 'NONE', ( #11, #74 ), #217, .T. ) ;
#211 = CC_DESIGN_DATE_AND_TIME_ASSIGNMENT ( #115, #193, ( #124 ) ) ;
#212 = CIRCLE ( 'NONE', #152, 0.7999999999999996003 ) ;
#213 = PRODUCT_DEFINITION_FORMATION_WITH_SPECIFIED_SOURCE ( 'ANY', '', #146, .NOT_KNOWN. ) ;
#214 = PERSON ( 'UNSPECIFIED', 'UNSPECIFIED', 'UNSPECIFIED', ('UNSPECIFIED'), ('UNSPECIFIED'), ('UNSPECIFIED') ) ;
#215 = ORIENTED_EDGE ( 'NONE', *, *, #189, .T. ) ;
#216 = APPROVAL ( #98, 'UNSPECIFIED' ) ;
#217 = CYLINDRICAL_SURFACE ( 'NONE', #20, 0.9149999999999945954 ) ;
#218 = CC_DESIGN_SECURITY_CLASSIFICATION ( #172, ( #213 ) ) ;
#219 = VERTEX_POINT ( 'NONE', #57 ) ;
#220 = DIRECTION ( 'NONE',  ( -4.275831445896958607E-31, -1.000000000000000000, -1.224646799147353207E-16 ) ) ;
#221 = ORIENTED_EDGE ( 'NONE', *, *, #7, .F. ) ;
#222 = CALENDAR_DATE ( 2021, 8, 10 ) ;
#223 = CIRCLE ( 'NONE', #126, 0.9149999999999935962 ) ;
ENDSEC;
END-ISO-10303-21;
