ISO-10303-21;
HEADER;
FILE_DESCRIPTION (( 'STEP AP203' ),
    '1' );
FILE_NAME ('61388.step',
    '2021-10-07T13:48:30',
    ( '' ),
    ( '' ),
    'SwSTEP 2.0',
    'SolidWorks 2019',
    '' );
FILE_SCHEMA (( 'CONFIG_CONTROL_DESIGN' ));
ENDSEC;

DATA;
#1 = CC_DESIGN_PERSON_AND_ORGANIZATION_ASSIGNMENT ( #75, #60, ( #115 ) ) ;
#2 = COORDINATED_UNIVERSAL_TIME_OFFSET ( 1, 0, .AHEAD. ) ;
#3 = ADVANCED_FACE ( 'NONE', ( #110, #109 ), #70, .T. ) ;
#4 = COORDINATED_UNIVERSAL_TIME_OFFSET ( 1, 0, .AHEAD. ) ;
#5 = CIRCLE ( 'NONE', #37, 0.7999999999999996003 ) ;
#6 = CC_DESIGN_APPROVAL ( #194, ( #179 ) ) ;
#7 = SHAPE_DEFINITION_REPRESENTATION ( #18, #172 ) ;
#8 = ADVANCED_FACE ( 'NONE', ( #24, #159 ), #98, .T. ) ;
#9 = CARTESIAN_POINT ( 'NONE',  ( 4.189777606611760026E-14, 6.861401005677940533E-33, 12.00000000000000000 ) ) ;
#10 = PERSON ( 'UNSPECIFIED', 'UNSPECIFIED', 'UNSPECIFIED', ('UNSPECIFIED'), ('UNSPECIFIED'), ('UNSPECIFIED') ) ;
#11 = CALENDAR_DATE ( 2021, 7, 10 ) ;
#12 = DIRECTION ( 'NONE',  ( 3.491481338843133355E-15, -1.224646799147353207E-16, 1.000000000000000000 ) ) ;
#13 = DIRECTION ( 'NONE',  ( -4.275831445896958607E-31, -1.000000000000000000, -1.224646799147353207E-16 ) ) ;
#14 = CARTESIAN_POINT ( 'NONE',  ( 1.319779946082704535E-13, -4.629164900776995227E-15, 37.79999999999999716 ) ) ;
#15 = PERSON_AND_ORGANIZATION ( #10, #57 ) ;
#16 = CC_DESIGN_PERSON_AND_ORGANIZATION_ASSIGNMENT ( #36, #58, ( #180 ) ) ;
#17 = SECURITY_CLASSIFICATION_LEVEL ( 'unclassified' ) ;
#18 = PRODUCT_DEFINITION_SHAPE ( 'NONE', 'NONE',  #174 ) ;
#19 = APPROVAL_PERSON_ORGANIZATION ( #137, #194, #138 ) ;
#20 = VERTEX_POINT ( 'NONE', #40 ) ;
#21 = APPROVAL ( #175, 'UNSPECIFIED' ) ;
#22 = APPROVAL_ROLE ( '' ) ;
#23 = APPROVAL_STATUS ( 'not_yet_approved' ) ;
#24 = FACE_OUTER_BOUND ( 'NONE', #47, .T. ) ;
#25 = CIRCLE ( 'NONE', #214, 0.9999999999999970024 ) ;
#26 = DIRECTION ( 'NONE',  ( -4.209682938551364449E-31, -1.000000000000000000, -1.184920407087991221E-16 ) ) ;
#27 = CLOSED_SHELL ( 'NONE', ( #211, #63, #8, #3, #160 ) ) ;
#28 = AXIS2_PLACEMENT_3D ( 'NONE', #51, #84, #83 ) ;
#29 = LOCAL_TIME ( 15, 48, 30.00000000000000000, #206 ) ;
#30 = DIRECTION ( 'NONE',  ( 4.209682938551364449E-31, 1.000000000000000000, 1.184920407087991221E-16 ) ) ;
#31 = APPROVAL ( #23, 'UNSPECIFIED' ) ;
#32 = CARTESIAN_POINT ( 'NONE',  ( 4.189777606611760026E-14, 6.861401005677940533E-33, 12.00000000000000000 ) ) ;
#33 = VERTEX_POINT ( 'NONE', #216 ) ;
#34 = LOCAL_TIME ( 15, 48, 30.00000000000000000, #2 ) ;
#35 = CARTESIAN_POINT ( 'NONE',  ( 0.0000000000000000000, 0.0000000000000000000, 0.0000000000000000000 ) ) ;
#36 = PERSON_AND_ORGANIZATION ( #10, #57 ) ;
#37 = AXIS2_PLACEMENT_3D ( 'NONE', #183, #162, #54 ) ;
#38 = LOCAL_TIME ( 15, 48, 30.00000000000000000, #4 ) ;
#39 = CALENDAR_DATE ( 2021, 7, 10 ) ;
#40 = CARTESIAN_POINT ( 'NONE',  ( 1.919572679301128463E-15, 0.9149999999999934852, 0.5497874664102198050 ) ) ;
#41 = APPLICATION_CONTEXT ( 'configuration controlled 3d designs of mechanical parts and assemblies' ) ;
#42 = EDGE_LOOP ( 'NONE', ( #208 ) ) ;
#43 = EDGE_LOOP ( 'NONE', ( #141 ) ) ;
#44 = DIRECTION ( 'NONE',  ( 1.000000000000000000, 0.0000000000000000000, 0.0000000000000000000 ) ) ;
#45 = EDGE_LOOP ( 'NONE', ( #127 ) ) ;
#46 = AXIS2_PLACEMENT_3D ( 'NONE', #177, #93, #143 ) ;
#47 = EDGE_LOOP ( 'NONE', ( #128 ) ) ;
#48 = DATE_AND_TIME ( #11, #29 ) ;
#49 = DIRECTION ( 'NONE',  ( -3.491481338843133355E-15, 1.224646799147353207E-16, -1.000000000000000000 ) ) ;
#50 = EDGE_CURVE ( 'NONE', #33, #33, #78, .T. ) ;
#51 = CARTESIAN_POINT ( 'NONE',  ( 4.189777606611760026E-14, -1.469576158976823947E-15, 12.00000000000000000 ) ) ;
#52 = DIRECTION ( 'NONE',  ( -3.491481338843133355E-15, 1.224646799147353207E-16, -1.000000000000000000 ) ) ;
#53 = FACE_OUTER_BOUND ( 'NONE', #96, .T. ) ;
#54 = DIRECTION ( 'NONE',  ( 0.0000000000000000000, 1.000000000000000000, 0.0000000000000000000 ) ) ;
#55 = COORDINATED_UNIVERSAL_TIME_OFFSET ( 1, 0, .AHEAD. ) ;
#56 = CIRCLE ( 'NONE', #105, 0.9999999999999993339 ) ;
#57 = ORGANIZATION ( 'UNSPECIFIED', 'UNSPECIFIED', '' ) ;
#58 = PERSON_AND_ORGANIZATION_ROLE ( 'design_owner' ) ;
#59 = CONICAL_SURFACE ( 'NONE', #169, 0.9999999999999970024, 0.5235987755982919323 ) ;
#60 = PERSON_AND_ORGANIZATION_ROLE ( 'creator' ) ;
#61 = CC_DESIGN_PERSON_AND_ORGANIZATION_ASSIGNMENT ( #92, #223, ( #179 ) ) ;
#62 = AXIS2_PLACEMENT_3D ( 'NONE', #9, #67, #185 ) ;
#63 = ADVANCED_FACE ( 'NONE', ( #217, #136 ), #59, .T. ) ;
#64 = VERTEX_POINT ( 'NONE', #132 ) ;
#65 = FACE_OUTER_BOUND ( 'NONE', #43, .T. ) ;
#66 = CIRCLE ( 'NONE', #156, 0.9149999999999935962 ) ;
#67 = DIRECTION ( 'NONE',  ( 3.491481338843133355E-15, -1.224646799147353207E-16, 1.000000000000000000 ) ) ;
#68 = DIRECTION ( 'NONE',  ( 0.0000000000000000000, 1.000000000000000000, 0.0000000000000000000 ) ) ;
#69 = APPROVAL_DATE_TIME ( #171, #21 ) ;
#70 = CONICAL_SURFACE ( 'NONE', #46, 0.7999999999999996003, 0.7853981633974507215 ) ;
#71 = EDGE_CURVE ( 'NONE', #64, #64, #209, .T. ) ;
#72 = LOCAL_TIME ( 15, 48, 30.00000000000000000, #155 ) ;
#73 = PERSON_AND_ORGANIZATION ( #10, #57 ) ;
#74 = CC_DESIGN_PERSON_AND_ORGANIZATION_ASSIGNMENT ( #86, #207, ( #115 ) ) ;
#75 = PERSON_AND_ORGANIZATION ( #10, #57 ) ;
#76 = EDGE_LOOP ( 'NONE', ( #129 ) ) ;
#77 = DATE_AND_TIME ( #189, #34 ) ;
#78 = CIRCLE ( 'NONE', #28, 0.9149999999999954836 ) ;
#79 =( GEOMETRIC_REPRESENTATION_CONTEXT ( 3 ) GLOBAL_UNCERTAINTY_ASSIGNED_CONTEXT ( ( #119 ) ) GLOBAL_UNIT_ASSIGNED_CONTEXT ( ( #173, #90, #140 ) ) REPRESENTATION_CONTEXT ( 'NONE', 'WORKASPACE' ) );
#80 = ORIENTED_EDGE ( 'NONE', *, *, #71, .T. ) ;
#81 = DIRECTION ( 'NONE',  ( 0.0000000000000000000, -1.000000000000000000, 0.0000000000000000000 ) ) ;
#82 = VERTEX_POINT ( 'NONE', #117 ) ;
#83 = DIRECTION ( 'NONE',  ( 0.0000000000000000000, 1.000000000000000000, 0.0000000000000000000 ) ) ;
#84 = DIRECTION ( 'NONE',  ( -3.491481338843133355E-15, 1.224646799147353207E-16, -1.000000000000000000 ) ) ;
#85 = DIRECTION ( 'NONE',  ( 4.275831445896958607E-31, 1.000000000000000000, 1.224646799147353207E-16 ) ) ;
#86 = PERSON_AND_ORGANIZATION ( #10, #57 ) ;
#87 = ADVANCED_FACE ( 'NONE', ( #120, #53 ), #133, .T. ) ;
#88 = DIRECTION ( 'NONE',  ( 0.0000000000000000000, 0.0000000000000000000, 1.000000000000000000 ) ) ;
#89 = CC_DESIGN_PERSON_AND_ORGANIZATION_ASSIGNMENT ( #153, #124, ( #174 ) ) ;
#90 =( NAMED_UNIT ( * ) PLANE_ANGLE_UNIT ( ) SI_UNIT ( $, .RADIAN. ) );
#91 = EDGE_LOOP ( 'NONE', ( #213 ) ) ;
#92 = PERSON_AND_ORGANIZATION ( #10, #57 ) ;
#93 = DIRECTION ( 'NONE',  ( -3.491481338843133355E-15, 1.224646799147353207E-16, -1.000000000000000000 ) ) ;
#94 = CARTESIAN_POINT ( 'NONE',  ( 0.0000000000000000000, 0.0000000000000000000, 0.0000000000000000000 ) ) ;
#95 = ORIENTED_EDGE ( 'NONE', *, *, #152, .T. ) ;
#96 = EDGE_LOOP ( 'NONE', ( #80 ) ) ;
#97 = EDGE_CURVE ( 'NONE', #199, #199, #25, .T. ) ;
#98 = CYLINDRICAL_SURFACE ( 'NONE', #178, 0.9999999999999983347 ) ;
#99 = CARTESIAN_POINT ( 'NONE',  ( 4.241180702728478862E-14, 0.9999999999999954481, 12.14722431864336016 ) ) ;
#100 = CARTESIAN_POINT ( 'NONE',  ( 1.326762908760390423E-13, 0.7999999999999949374, 38.00000000000000000 ) ) ;
#101 = CARTESIAN_POINT ( 'NONE',  ( 4.189777606611760026E-14, -1.469576158976823947E-15, 12.00000000000000000 ) ) ;
#102 = AXIS2_PLACEMENT_3D ( 'NONE', #94, #88, #44 ) ;
#103 = PLANE ( 'NONE',  #187 ) ;
#104 = EDGE_CURVE ( 'NONE', #82, #82, #56, .T. ) ;
#105 = AXIS2_PLACEMENT_3D ( 'NONE', #14, #49, #68 ) ;
#106 = LOCAL_TIME ( 15, 48, 30.00000000000000000, #55 ) ;
#107 = DATE_AND_TIME ( #39, #106 ) ;
#108 = APPLICATION_PROTOCOL_DEFINITION ( 'international standard', 'config_control_design', 1994, #41 ) ;
#109 = FACE_BOUND ( 'NONE', #76, .T. ) ;
#110 = FACE_OUTER_BOUND ( 'NONE', #91, .T. ) ;
#111 = ORIENTED_EDGE ( 'NONE', *, *, #104, .T. ) ;
#112 = EDGE_CURVE ( 'NONE', #184, #184, #5, .T. ) ;
#113 = DIRECTION ( 'NONE',  ( 3.491481338843133355E-15, -1.224646799147353207E-16, 1.000000000000000000 ) ) ;
#114 = CARTESIAN_POINT ( 'NONE',  ( 4.241180702728478862E-14, -1.487605938035147924E-15, 12.14722431864336016 ) ) ;
#115 = PRODUCT_DEFINITION_FORMATION_WITH_SPECIFIED_SOURCE ( 'ANY', '', #180, .NOT_KNOWN. ) ;
#116 = APPLICATION_CONTEXT ( 'configuration controlled 3d designs of mechanical parts and assemblies' ) ;
#117 = CARTESIAN_POINT ( 'NONE',  ( 1.319779946082704535E-13, 0.9999999999999947820, 37.79999999999999716 ) ) ;
#118 = FACE_OUTER_BOUND ( 'NONE', #196, .T. ) ;
#119 = UNCERTAINTY_MEASURE_WITH_UNIT (LENGTH_MEASURE( 1.000000000000000082E-05 ), #173, 'distance_accuracy_value', 'NONE');
#120 = FACE_OUTER_BOUND ( 'NONE', #42, .T. ) ;
#121 = APPROVAL_PERSON_ORGANIZATION ( #15, #21, #22 ) ;
#122 = APPROVAL_STATUS ( 'not_yet_approved' ) ;
#123 = CC_DESIGN_DATE_AND_TIME_ASSIGNMENT ( #210, #193, ( #179 ) ) ;
#124 = PERSON_AND_ORGANIZATION_ROLE ( 'creator' ) ;
#125 = MECHANICAL_CONTEXT ( 'NONE', #41, 'mechanical' ) ;
#126 = AXIS2_PLACEMENT_3D ( 'NONE', #197, #113, #26 ) ;
#127 = ORIENTED_EDGE ( 'NONE', *, *, #50, .F. ) ;
#128 = ORIENTED_EDGE ( 'NONE', *, *, #97, .F. ) ;
#129 = ORIENTED_EDGE ( 'NONE', *, *, #112, .T. ) ;
#130 = ADVANCED_FACE ( 'NONE', ( #65 ), #186, .T. ) ;
#131 = DIRECTION ( 'NONE',  ( 0.0000000000000000000, 1.000000000000000000, 0.0000000000000000000 ) ) ;
#132 = CARTESIAN_POINT ( 'NONE',  ( 4.189777606611760026E-14, 0.9149999999999939293, 12.00000000000000000 ) ) ;
#133 = CYLINDRICAL_SURFACE ( 'NONE', #134, 0.9149999999999945954 ) ;
#134 = AXIS2_PLACEMENT_3D ( 'NONE', #35, #148, #163 ) ;
#135 = DIRECTION ( 'NONE',  ( 0.0000000000000000000, 1.000000000000000000, 0.0000000000000000000 ) ) ;
#136 = FACE_OUTER_BOUND ( 'NONE', #154, .T. ) ;
#137 = PERSON_AND_ORGANIZATION ( #10, #57 ) ;
#138 = APPROVAL_ROLE ( '' ) ;
#139 = CONICAL_SURFACE ( 'NONE', #126, 0.9149999999999935962, 1.029744258676649871 ) ;
#140 =( NAMED_UNIT ( * ) SI_UNIT ( $, .STERADIAN. ) SOLID_ANGLE_UNIT ( ) );
#141 = ORIENTED_EDGE ( 'NONE', *, *, #71, .F. ) ;
#142 = CALENDAR_DATE ( 2021, 7, 10 ) ;
#143 = DIRECTION ( 'NONE',  ( 0.0000000000000000000, 1.000000000000000000, 0.0000000000000000000 ) ) ;
#144 = EDGE_LOOP ( 'NONE', ( #191 ) ) ;
#145 = CC_DESIGN_SECURITY_CLASSIFICATION ( #179, ( #115 ) ) ;
#146 = DIRECTION ( 'NONE',  ( -3.491481338843133355E-15, 1.224646799147353207E-16, -1.000000000000000000 ) ) ;
#147 = FACE_OUTER_BOUND ( 'NONE', #144, .T. ) ;
#148 = DIRECTION ( 'NONE',  ( -3.491481338843133355E-15, 1.224646799147353207E-16, -1.000000000000000000 ) ) ;
#149 = MANIFOLD_SOLID_BREP ( 'Corps-Déplacer/Copier1[2]', #222 ) ;
#150 = CARTESIAN_POINT ( 'NONE',  ( 1.919572679301128068E-15, -6.732954609506086189E-17, 0.5497874664102196940 ) ) ;
#151 = MANIFOLD_SOLID_BREP ( 'Corps-Déplacer/Copier1[1]', #27 ) ;
#152 = EDGE_CURVE ( 'NONE', #20, #20, #66, .T. ) ;
#153 = PERSON_AND_ORGANIZATION ( #10, #57 ) ;
#154 = EDGE_LOOP ( 'NONE', ( #195 ) ) ;
#155 = COORDINATED_UNIVERSAL_TIME_OFFSET ( 1, 0, .AHEAD. ) ;
#156 = AXIS2_PLACEMENT_3D ( 'NONE', #150, #219, #30 ) ;
#157 = AXIS2_PLACEMENT_3D ( 'NONE', #32, #202, #13 ) ;
#158 = APPROVAL_ROLE ( '' ) ;
#159 = FACE_OUTER_BOUND ( 'NONE', #212, .T. ) ;
#160 = ADVANCED_FACE ( 'NONE', ( #147 ), #103, .F. ) ;
#161 = DESIGN_CONTEXT ( 'detailed design', #116, 'design' ) ;
#162 = DIRECTION ( 'NONE',  ( -3.491481338843133355E-15, 1.224646799147353207E-16, -1.000000000000000000 ) ) ;
#163 = DIRECTION ( 'NONE',  ( 4.275831445896958607E-31, 1.000000000000000000, 1.224646799147352961E-16 ) ) ;
#164 = CARTESIAN_POINT ( 'NONE',  ( 0.0000000000000000000, 0.0000000000000000000, 0.0000000000000000000 ) ) ;
#165 = DIRECTION ( 'NONE',  ( -3.491481338843133355E-15, 1.224646799147353207E-16, -1.000000000000000000 ) ) ;
#166 = ADVANCED_FACE ( 'NONE', ( #221 ), #139, .T. ) ;
#167 = CARTESIAN_POINT ( 'NONE',  ( 1.326762908760390423E-13, 5.999039130647358587E-33, 38.00000000000000000 ) ) ;
#168 = DATE_TIME_ROLE ( 'creation_date' ) ;
#169 = AXIS2_PLACEMENT_3D ( 'NONE', #114, #12, #81 ) ;
#170 = CC_DESIGN_DATE_AND_TIME_ASSIGNMENT ( #107, #168, ( #174 ) ) ;
#171 = DATE_AND_TIME ( #190, #38 ) ;
#172 = ADVANCED_BREP_SHAPE_REPRESENTATION ( '61388', ( #151, #149, #102 ), #79 ) ;
#173 =( LENGTH_UNIT ( ) NAMED_UNIT ( * ) SI_UNIT ( .MILLI., .METRE. ) );
#174 = PRODUCT_DEFINITION ( 'UNKNOWN', '', #115, #161 ) ;
#175 = APPROVAL_STATUS ( 'not_yet_approved' ) ;
#176 = EDGE_LOOP ( 'NONE', ( #95 ) ) ;
#177 = CARTESIAN_POINT ( 'NONE',  ( 1.326762908760390423E-13, -4.653657836759941941E-15, 38.00000000000000000 ) ) ;
#178 = AXIS2_PLACEMENT_3D ( 'NONE', #164, #203, #220 ) ;
#179 = SECURITY_CLASSIFICATION ( '', '', #17 ) ;
#180 = PRODUCT ( '61388', '61388', '', ( #125 ) ) ;
#181 = ORIENTED_EDGE ( 'NONE', *, *, #50, .T. ) ;
#182 = PLANE ( 'NONE',  #62 ) ;
#183 = CARTESIAN_POINT ( 'NONE',  ( 1.326762908760390423E-13, -4.653657836759941941E-15, 38.00000000000000000 ) ) ;
#184 = VERTEX_POINT ( 'NONE', #100 ) ;
#185 = DIRECTION ( 'NONE',  ( -4.275831445896958607E-31, -1.000000000000000000, -1.224646799147353207E-16 ) ) ;
#186 = PLANE ( 'NONE',  #157 ) ;
#187 = AXIS2_PLACEMENT_3D ( 'NONE', #167, #52, #85 ) ;
#188 = PRODUCT_RELATED_PRODUCT_CATEGORY ( 'detail', '', ( #180 ) ) ;
#189 = CALENDAR_DATE ( 2021, 7, 10 ) ;
#190 = CALENDAR_DATE ( 2021, 7, 10 ) ;
#191 = ORIENTED_EDGE ( 'NONE', *, *, #112, .F. ) ;
#192 = APPROVAL_DATE_TIME ( #77, #31 ) ;
#193 = DATE_TIME_ROLE ( 'classification_date' ) ;
#194 = APPROVAL ( #122, 'UNSPECIFIED' ) ;
#195 = ORIENTED_EDGE ( 'NONE', *, *, #97, .T. ) ;
#196 = EDGE_LOOP ( 'NONE', ( #181 ) ) ;
#197 = CARTESIAN_POINT ( 'NONE',  ( 1.919572679301128068E-15, -6.732954609506086189E-17, 0.5497874664102196940 ) ) ;
#198 = APPROVAL_DATE_TIME ( #48, #194 ) ;
#199 = VERTEX_POINT ( 'NONE', #99 ) ;
#200 = AXIS2_PLACEMENT_3D ( 'NONE', #101, #146, #131 ) ;
#201 = CC_DESIGN_APPROVAL ( #31, ( #174 ) ) ;
#202 = DIRECTION ( 'NONE',  ( 3.491481338843133355E-15, -1.224646799147353207E-16, 1.000000000000000000 ) ) ;
#203 = DIRECTION ( 'NONE',  ( -3.491481338843133355E-15, 1.224646799147353207E-16, -1.000000000000000000 ) ) ;
#204 = CARTESIAN_POINT ( 'NONE',  ( 4.241180702728478862E-14, -1.487605938035147924E-15, 12.14722431864336016 ) ) ;
#205 = APPLICATION_PROTOCOL_DEFINITION ( 'international standard', 'config_control_design', 1994, #116 ) ;
#206 = COORDINATED_UNIVERSAL_TIME_OFFSET ( 1, 0, .AHEAD. ) ;
#207 = PERSON_AND_ORGANIZATION_ROLE ( 'design_supplier' ) ;
#208 = ORIENTED_EDGE ( 'NONE', *, *, #152, .F. ) ;
#209 = CIRCLE ( 'NONE', #200, 0.9149999999999954836 ) ;
#210 = DATE_AND_TIME ( #142, #72 ) ;
#211 = ADVANCED_FACE ( 'NONE', ( #118 ), #182, .F. ) ;
#212 = EDGE_LOOP ( 'NONE', ( #111 ) ) ;
#213 = ORIENTED_EDGE ( 'NONE', *, *, #104, .F. ) ;
#214 = AXIS2_PLACEMENT_3D ( 'NONE', #204, #165, #135 ) ;
#215 = APPROVAL_PERSON_ORGANIZATION ( #73, #31, #158 ) ;
#216 = CARTESIAN_POINT ( 'NONE',  ( 4.189777606611760026E-14, 0.9149999999999939293, 12.00000000000000000 ) ) ;
#217 = FACE_BOUND ( 'NONE', #45, .T. ) ;
#218 = CC_DESIGN_APPROVAL ( #21, ( #115 ) ) ;
#219 = DIRECTION ( 'NONE',  ( -3.491481338843133355E-15, 1.224646799147353207E-16, -1.000000000000000000 ) ) ;
#220 = DIRECTION ( 'NONE',  ( 4.275831445896958607E-31, 1.000000000000000000, 1.224646799147353207E-16 ) ) ;
#221 = FACE_OUTER_BOUND ( 'NONE', #176, .T. ) ;
#222 = CLOSED_SHELL ( 'NONE', ( #166, #87, #130 ) ) ;
#223 = PERSON_AND_ORGANIZATION_ROLE ( 'classification_officer' ) ;
ENDSEC;
END-ISO-10303-21;
