ISO-10303-21;
HEADER;
FILE_DESCRIPTION (( 'STEP AP203' ),
    '1' );
FILE_NAME ('61387.step',
    '2021-10-08T05:16:09',
    ( '' ),
    ( '' ),
    'SwSTEP 2.0',
    'SolidWorks 2019',
    '' );
FILE_SCHEMA (( 'CONFIG_CONTROL_DESIGN' ));
ENDSEC;

DATA;
#1 = PERSON_AND_ORGANIZATION_ROLE ( 'design_owner' ) ;
#2 = DATE_AND_TIME ( #51, #148 ) ;
#3 = ADVANCED_FACE ( 'NONE', ( #215 ), #90, .F. ) ;
#4 = EDGE_CURVE ( 'NONE', #16, #16, #107, .T. ) ;
#5 = PERSON_AND_ORGANIZATION_ROLE ( 'creator' ) ;
#6 = CC_DESIGN_SECURITY_CLASSIFICATION ( #63, ( #79 ) ) ;
#7 = DIRECTION ( 'NONE',  ( 0.0000000000000000000, 1.000000000000000000, 0.0000000000000000000 ) ) ;
#8 = AXIS2_PLACEMENT_3D ( 'NONE', #81, #165, #117 ) ;
#9 = ORIENTED_EDGE ( 'NONE', *, *, #56, .T. ) ;
#10 = EDGE_LOOP ( 'NONE', ( #72 ) ) ;
#11 = DIRECTION ( 'NONE',  ( 3.491481338843133355E-15, -1.224646799147353207E-16, 1.000000000000000000 ) ) ;
#12 = AXIS2_PLACEMENT_3D ( 'NONE', #179, #29, #143 ) ;
#13 = DIRECTION ( 'NONE',  ( -3.491481338843133355E-15, 1.224646799147353207E-16, -1.000000000000000000 ) ) ;
#14 = DIRECTION ( 'NONE',  ( 0.0000000000000000000, 1.000000000000000000, 0.0000000000000000000 ) ) ;
#15 = LOCAL_TIME ( 7, 16, 9.000000000000000000, #88 ) ;
#16 = VERTEX_POINT ( 'NONE', #65 ) ;
#17 = EDGE_CURVE ( 'NONE', #80, #80, #156, .T. ) ;
#18 = ORGANIZATION ( 'UNSPECIFIED', 'UNSPECIFIED', '' ) ;
#19 = DATE_TIME_ROLE ( 'creation_date' ) ;
#20 = DATE_AND_TIME ( #190, #97 ) ;
#21 = APPROVAL_STATUS ( 'not_yet_approved' ) ;
#22 = AXIS2_PLACEMENT_3D ( 'NONE', #135, #116, #206 ) ;
#23 = EDGE_LOOP ( 'NONE', ( #218 ) ) ;
#24 = PRODUCT_DEFINITION ( 'UNKNOWN', '', #79, #195 ) ;
#25 = DIRECTION ( 'NONE',  ( 3.491481338843133355E-15, -1.224646799147353207E-16, 1.000000000000000000 ) ) ;
#26 = CARTESIAN_POINT ( 'NONE',  ( 4.232109568119646980E-14, -1.484424212318973383E-15, 12.12124355652982821 ) ) ;
#27 = CC_DESIGN_APPROVAL ( #120, ( #63 ) ) ;
#28 = EDGE_LOOP ( 'NONE', ( #109 ) ) ;
#29 = DIRECTION ( 'NONE',  ( -3.491481338843133355E-15, 1.224646799147353207E-16, -1.000000000000000000 ) ) ;
#30 = FACE_OUTER_BOUND ( 'NONE', #57, .T. ) ;
#31 = CARTESIAN_POINT ( 'NONE',  ( 1.326762908760390423E-13, 0.7999999999999949374, 38.00000000000000000 ) ) ;
#32 = DIRECTION ( 'NONE',  ( 0.0000000000000000000, 1.000000000000000000, 0.0000000000000000000 ) ) ;
#33 = PRODUCT_DEFINITION_SHAPE ( 'NONE', 'NONE',  #24 ) ;
#34 = PLANE ( 'NONE',  #8 ) ;
#35 = AXIS2_PLACEMENT_3D ( 'NONE', #130, #113, #32 ) ;
#36 = CC_DESIGN_DATE_AND_TIME_ASSIGNMENT ( #20, #19, ( #24 ) ) ;
#37 = DIRECTION ( 'NONE',  ( 1.000000000000000000, 0.0000000000000000000, 0.0000000000000000000 ) ) ;
#38 = DATE_AND_TIME ( #210, #198 ) ;
#39 = PERSON_AND_ORGANIZATION ( #140, #18 ) ;
#40 = FACE_BOUND ( 'NONE', #128, .T. ) ;
#41 = ORIENTED_EDGE ( 'NONE', *, *, #84, .F. ) ;
#42 = ADVANCED_FACE ( 'NONE', ( #40, #162 ), #223, .T. ) ;
#43 = CARTESIAN_POINT ( 'NONE',  ( 1.951041083879836101E-15, -6.843330914579958779E-17, 0.5588003756956333445 ) ) ;
#44 = FACE_OUTER_BOUND ( 'NONE', #23, .T. ) ;
#45 = CYLINDRICAL_SURFACE ( 'NONE', #73, 0.9999999999999983347 ) ;
#46 = VERTEX_POINT ( 'NONE', #202 ) ;
#47 = FACE_BOUND ( 'NONE', #177, .T. ) ;
#48 = APPROVAL_STATUS ( 'not_yet_approved' ) ;
#49 = COORDINATED_UNIVERSAL_TIME_OFFSET ( 1, 0, .AHEAD. ) ;
#50 = APPROVAL_ROLE ( '' ) ;
#51 = CALENDAR_DATE ( 2021, 8, 10 ) ;
#52 = EDGE_LOOP ( 'NONE', ( #75 ) ) ;
#53 = APPROVAL_PERSON_ORGANIZATION ( #150, #178, #173 ) ;
#54 = DIRECTION ( 'NONE',  ( 0.0000000000000000000, 1.000000000000000000, 0.0000000000000000000 ) ) ;
#55 = CC_DESIGN_PERSON_AND_ORGANIZATION_ASSIGNMENT ( #170, #138, ( #79 ) ) ;
#56 = EDGE_CURVE ( 'NONE', #99, #99, #151, .T. ) ;
#57 = EDGE_LOOP ( 'NONE', ( #211 ) ) ;
#58 = CARTESIAN_POINT ( 'NONE',  ( 1.951041083879836101E-15, -6.843330914579958779E-17, 0.5588003756956333445 ) ) ;
#59 = EDGE_LOOP ( 'NONE', ( #9 ) ) ;
#60 = CYLINDRICAL_SURFACE ( 'NONE', #209, 0.9299999999999946088 ) ;
#61 = DIRECTION ( 'NONE',  ( 3.491481338843133355E-15, -1.224646799147353207E-16, 1.000000000000000000 ) ) ;
#62 = CONICAL_SURFACE ( 'NONE', #22, 0.7999999999999996003, 0.7853981633974507215 ) ;
#63 = SECURITY_CLASSIFICATION ( '', '', #155 ) ;
#64 =( NAMED_UNIT ( * ) SI_UNIT ( $, .STERADIAN. ) SOLID_ANGLE_UNIT ( ) );
#65 = CARTESIAN_POINT ( 'NONE',  ( 4.189777606611760026E-14, 0.9299999999999941647, 12.00000000000000000 ) ) ;
#66 = APPROVAL_ROLE ( '' ) ;
#67 = CC_DESIGN_PERSON_AND_ORGANIZATION_ASSIGNMENT ( #122, #5, ( #24 ) ) ;
#68 = COORDINATED_UNIVERSAL_TIME_OFFSET ( 1, 0, .AHEAD. ) ;
#69 = ADVANCED_FACE ( 'NONE', ( #93 ), #82, .T. ) ;
#70 = APPROVAL_DATE_TIME ( #87, #201 ) ;
#71 = CC_DESIGN_PERSON_AND_ORGANIZATION_ASSIGNMENT ( #39, #1, ( #115 ) ) ;
#72 = ORIENTED_EDGE ( 'NONE', *, *, #145, .F. ) ;
#73 = AXIS2_PLACEMENT_3D ( 'NONE', #219, #182, #204 ) ;
#74 = FACE_OUTER_BOUND ( 'NONE', #199, .T. ) ;
#75 = ORIENTED_EDGE ( 'NONE', *, *, #4, .T. ) ;
#76 = DIRECTION ( 'NONE',  ( -3.491481338843133355E-15, 1.224646799147353207E-16, -1.000000000000000000 ) ) ;
#77 = DIRECTION ( 'NONE',  ( 0.0000000000000000000, -1.000000000000000000, 0.0000000000000000000 ) ) ;
#78 = AXIS2_PLACEMENT_3D ( 'NONE', #160, #76, #129 ) ;
#79 = PRODUCT_DEFINITION_FORMATION_WITH_SPECIFIED_SOURCE ( 'ANY', '', #115, .NOT_KNOWN. ) ;
#80 = VERTEX_POINT ( 'NONE', #183 ) ;
#81 = CARTESIAN_POINT ( 'NONE',  ( 4.189777606611760026E-14, 6.973882989377582043E-33, 12.00000000000000000 ) ) ;
#82 = CONICAL_SURFACE ( 'NONE', #172, 0.9299999999999936096, 1.029744258676649649 ) ;
#83 = APPROVAL_PERSON_ORGANIZATION ( #137, #201, #50 ) ;
#84 = EDGE_CURVE ( 'NONE', #46, #46, #101, .T. ) ;
#85 = DIRECTION ( 'NONE',  ( 0.0000000000000000000, 0.0000000000000000000, 1.000000000000000000 ) ) ;
#86 = COORDINATED_UNIVERSAL_TIME_OFFSET ( 1, 0, .AHEAD. ) ;
#87 = DATE_AND_TIME ( #104, #15 ) ;
#88 = COORDINATED_UNIVERSAL_TIME_OFFSET ( 1, 0, .AHEAD. ) ;
#89 = MECHANICAL_CONTEXT ( 'NONE', #191, 'mechanical' ) ;
#90 = PLANE ( 'NONE',  #78 ) ;
#91 = CARTESIAN_POINT ( 'NONE',  ( 4.232109568119646980E-14, -1.484424212318973383E-15, 12.12124355652982821 ) ) ;
#92 = UNCERTAINTY_MEASURE_WITH_UNIT (LENGTH_MEASURE( 1.000000000000000082E-05 ), #166, 'distance_accuracy_value', 'NONE');
#93 = FACE_OUTER_BOUND ( 'NONE', #59, .T. ) ;
#94 = ADVANCED_FACE ( 'NONE', ( #74 ), #185, .F. ) ;
#95 = CARTESIAN_POINT ( 'NONE',  ( 1.951041083879836495E-15, 0.9299999999999934985, 0.5588003756956334556 ) ) ;
#96 = CLOSED_SHELL ( 'NONE', ( #69, #186, #168 ) ) ;
#97 = LOCAL_TIME ( 7, 16, 9.000000000000000000, #49 ) ;
#98 = CARTESIAN_POINT ( 'NONE',  ( 4.189777606611760026E-14, 0.9299999999999941647, 12.00000000000000000 ) ) ;
#99 = VERTEX_POINT ( 'NONE', #95 ) ;
#100 = VERTEX_POINT ( 'NONE', #98 ) ;
#101 = CIRCLE ( 'NONE', #196, 0.9999999999999970024 ) ;
#102 = APPROVAL_PERSON_ORGANIZATION ( #139, #120, #66 ) ;
#103 = DIRECTION ( 'NONE',  ( -4.275831445896958607E-31, -1.000000000000000000, -1.224646799147353207E-16 ) ) ;
#104 = CALENDAR_DATE ( 2021, 8, 10 ) ;
#105 = COORDINATED_UNIVERSAL_TIME_OFFSET ( 1, 0, .AHEAD. ) ;
#106 = PERSON_AND_ORGANIZATION ( #140, #18 ) ;
#107 = CIRCLE ( 'NONE', #12, 0.9299999999999957190 ) ;
#108 = DIRECTION ( 'NONE',  ( -3.491481338843133355E-15, 1.224646799147353207E-16, -1.000000000000000000 ) ) ;
#109 = ORIENTED_EDGE ( 'NONE', *, *, #17, .F. ) ;
#110 =( GEOMETRIC_REPRESENTATION_CONTEXT ( 3 ) GLOBAL_UNCERTAINTY_ASSIGNED_CONTEXT ( ( #92 ) ) GLOBAL_UNIT_ASSIGNED_CONTEXT ( ( #166, #220, #64 ) ) REPRESENTATION_CONTEXT ( 'NONE', 'WORKASPACE' ) );
#111 = ORIENTED_EDGE ( 'NONE', *, *, #174, .T. ) ;
#112 = CARTESIAN_POINT ( 'NONE',  ( 4.189777606611760026E-14, -1.469576158976823947E-15, 12.00000000000000000 ) ) ;
#113 = DIRECTION ( 'NONE',  ( -3.491481338843133355E-15, 1.224646799147353207E-16, -1.000000000000000000 ) ) ;
#114 = CC_DESIGN_APPROVAL ( #201, ( #79 ) ) ;
#115 = PRODUCT ( '61387', '61387', '', ( #89 ) ) ;
#116 = DIRECTION ( 'NONE',  ( -3.491481338843133355E-15, 1.224646799147353207E-16, -1.000000000000000000 ) ) ;
#117 = DIRECTION ( 'NONE',  ( -4.275831445896958607E-31, -1.000000000000000000, -1.224646799147353207E-16 ) ) ;
#118 = PERSON_AND_ORGANIZATION_ROLE ( 'classification_officer' ) ;
#119 = DATE_TIME_ROLE ( 'classification_date' ) ;
#120 = APPROVAL ( #188, 'UNSPECIFIED' ) ;
#121 = ADVANCED_BREP_SHAPE_REPRESENTATION ( '61387', ( #123, #197, #176 ), #110 ) ;
#122 = PERSON_AND_ORGANIZATION ( #140, #18 ) ;
#123 = MANIFOLD_SOLID_BREP ( 'Corps-Déplacer/Copier1[1]', #175 ) ;
#124 = AXIS2_PLACEMENT_3D ( 'NONE', #112, #13, #14 ) ;
#125 = CC_DESIGN_DATE_AND_TIME_ASSIGNMENT ( #136, #119, ( #63 ) ) ;
#126 = ORIENTED_EDGE ( 'NONE', *, *, #145, .T. ) ;
#127 = AXIS2_PLACEMENT_3D ( 'NONE', #147, #61, #103 ) ;
#128 = EDGE_LOOP ( 'NONE', ( #200 ) ) ;
#129 = DIRECTION ( 'NONE',  ( 4.275831445896958607E-31, 1.000000000000000000, 1.224646799147353207E-16 ) ) ;
#130 = CARTESIAN_POINT ( 'NONE',  ( 1.326762908760390423E-13, -4.653657836759941941E-15, 38.00000000000000000 ) ) ;
#131 = FACE_OUTER_BOUND ( 'NONE', #194, .T. ) ;
#132 = FACE_OUTER_BOUND ( 'NONE', #28, .T. ) ;
#133 = FACE_OUTER_BOUND ( 'NONE', #52, .T. ) ;
#134 = ADVANCED_FACE ( 'NONE', ( #131, #44 ), #45, .T. ) ;
#135 = CARTESIAN_POINT ( 'NONE',  ( 1.326762908760390423E-13, -4.653657836759941941E-15, 38.00000000000000000 ) ) ;
#136 = DATE_AND_TIME ( #152, #164 ) ;
#137 = PERSON_AND_ORGANIZATION ( #140, #18 ) ;
#138 = PERSON_AND_ORGANIZATION_ROLE ( 'creator' ) ;
#139 = PERSON_AND_ORGANIZATION ( #140, #18 ) ;
#140 = PERSON ( 'UNSPECIFIED', 'UNSPECIFIED', 'UNSPECIFIED', ('UNSPECIFIED'), ('UNSPECIFIED'), ('UNSPECIFIED') ) ;
#141 = CARTESIAN_POINT ( 'NONE',  ( 1.319779946082704535E-13, -4.629164900776995227E-15, 37.79999999999999716 ) ) ;
#142 = AXIS2_PLACEMENT_3D ( 'NONE', #58, #108, #144 ) ;
#143 = DIRECTION ( 'NONE',  ( 0.0000000000000000000, 1.000000000000000000, 0.0000000000000000000 ) ) ;
#144 = DIRECTION ( 'NONE',  ( 4.141784826639245724E-31, 1.000000000000000000, 1.165808787618830089E-16 ) ) ;
#145 = EDGE_CURVE ( 'NONE', #167, #167, #203, .T. ) ;
#146 = CC_DESIGN_APPROVAL ( #178, ( #24 ) ) ;
#147 = CARTESIAN_POINT ( 'NONE',  ( 4.189777606611760026E-14, 6.973882989377582043E-33, 12.00000000000000000 ) ) ;
#148 = LOCAL_TIME ( 7, 16, 9.000000000000000000, #105 ) ;
#149 = CARTESIAN_POINT ( 'NONE',  ( 0.0000000000000000000, 0.0000000000000000000, 0.0000000000000000000 ) ) ;
#150 = PERSON_AND_ORGANIZATION ( #140, #18 ) ;
#151 = CIRCLE ( 'NONE', #142, 0.9299999999999936096 ) ;
#152 = CALENDAR_DATE ( 2021, 8, 10 ) ;
#153 = CC_DESIGN_PERSON_AND_ORGANIZATION_ASSIGNMENT ( #222, #171, ( #79 ) ) ;
#154 = SHAPE_DEFINITION_REPRESENTATION ( #33, #121 ) ;
#155 = SECURITY_CLASSIFICATION_LEVEL ( 'unclassified' ) ;
#156 = CIRCLE ( 'NONE', #163, 0.9999999999999993339 ) ;
#157 = APPROVAL_DATE_TIME ( #38, #178 ) ;
#158 = DIRECTION ( 'NONE',  ( -3.491481338843133355E-15, 1.224646799147353207E-16, -1.000000000000000000 ) ) ;
#159 = DIRECTION ( 'NONE',  ( -4.141784826639245724E-31, -1.000000000000000000, -1.165808787618830089E-16 ) ) ;
#160 = CARTESIAN_POINT ( 'NONE',  ( 1.326762908760390423E-13, 5.999039130647358587E-33, 38.00000000000000000 ) ) ;
#161 = ADVANCED_FACE ( 'NONE', ( #132, #47 ), #62, .T. ) ;
#162 = FACE_OUTER_BOUND ( 'NONE', #214, .T. ) ;
#163 = AXIS2_PLACEMENT_3D ( 'NONE', #141, #217, #54 ) ;
#164 = LOCAL_TIME ( 7, 16, 9.000000000000000000, #86 ) ;
#165 = DIRECTION ( 'NONE',  ( 3.491481338843133355E-15, -1.224646799147353207E-16, 1.000000000000000000 ) ) ;
#166 =( LENGTH_UNIT ( ) NAMED_UNIT ( * ) SI_UNIT ( .MILLI., .METRE. ) );
#167 = VERTEX_POINT ( 'NONE', #31 ) ;
#168 = ADVANCED_FACE ( 'NONE', ( #205 ), #34, .T. ) ;
#169 = DIRECTION ( 'NONE',  ( -3.491481338843133355E-15, 1.224646799147353207E-16, -1.000000000000000000 ) ) ;
#170 = PERSON_AND_ORGANIZATION ( #140, #18 ) ;
#171 = PERSON_AND_ORGANIZATION_ROLE ( 'design_supplier' ) ;
#172 = AXIS2_PLACEMENT_3D ( 'NONE', #43, #25, #159 ) ;
#173 = APPROVAL_ROLE ( '' ) ;
#174 = EDGE_CURVE ( 'NONE', #100, #100, #213, .T. ) ;
#175 = CLOSED_SHELL ( 'NONE', ( #94, #42, #134, #161, #3 ) ) ;
#176 = AXIS2_PLACEMENT_3D ( 'NONE', #149, #85, #37 ) ;
#177 = EDGE_LOOP ( 'NONE', ( #126 ) ) ;
#178 = APPROVAL ( #21, 'UNSPECIFIED' ) ;
#179 = CARTESIAN_POINT ( 'NONE',  ( 4.189777606611760026E-14, -1.469576158976823947E-15, 12.00000000000000000 ) ) ;
#180 = ORIENTED_EDGE ( 'NONE', *, *, #84, .T. ) ;
#181 = EDGE_LOOP ( 'NONE', ( #193 ) ) ;
#182 = DIRECTION ( 'NONE',  ( -3.491481338843133355E-15, 1.224646799147353207E-16, -1.000000000000000000 ) ) ;
#183 = CARTESIAN_POINT ( 'NONE',  ( 1.319779946082704535E-13, 0.9999999999999947820, 37.79999999999999716 ) ) ;
#184 = CARTESIAN_POINT ( 'NONE',  ( 0.0000000000000000000, 0.0000000000000000000, 0.0000000000000000000 ) ) ;
#185 = PLANE ( 'NONE',  #127 ) ;
#186 = ADVANCED_FACE ( 'NONE', ( #30, #133 ), #60, .T. ) ;
#187 = DIRECTION ( 'NONE',  ( 4.275831445896958607E-31, 1.000000000000000000, 1.224646799147353454E-16 ) ) ;
#188 = APPROVAL_STATUS ( 'not_yet_approved' ) ;
#189 = APPLICATION_PROTOCOL_DEFINITION ( 'international standard', 'config_control_design', 1994, #216 ) ;
#190 = CALENDAR_DATE ( 2021, 8, 10 ) ;
#191 = APPLICATION_CONTEXT ( 'configuration controlled 3d designs of mechanical parts and assemblies' ) ;
#192 = PRODUCT_RELATED_PRODUCT_CATEGORY ( 'detail', '', ( #115 ) ) ;
#193 = ORIENTED_EDGE ( 'NONE', *, *, #4, .F. ) ;
#194 = EDGE_LOOP ( 'NONE', ( #41 ) ) ;
#195 = DESIGN_CONTEXT ( 'detailed design', #216, 'design' ) ;
#196 = AXIS2_PLACEMENT_3D ( 'NONE', #91, #158, #7 ) ;
#197 = MANIFOLD_SOLID_BREP ( 'Corps-Déplacer/Copier1[2]', #96 ) ;
#198 = LOCAL_TIME ( 7, 16, 9.000000000000000000, #68 ) ;
#199 = EDGE_LOOP ( 'NONE', ( #111 ) ) ;
#200 = ORIENTED_EDGE ( 'NONE', *, *, #174, .F. ) ;
#201 = APPROVAL ( #48, 'UNSPECIFIED' ) ;
#202 = CARTESIAN_POINT ( 'NONE',  ( 4.232109568119646980E-14, 0.9999999999999954481, 12.12124355652982821 ) ) ;
#203 = CIRCLE ( 'NONE', #35, 0.7999999999999996003 ) ;
#204 = DIRECTION ( 'NONE',  ( 4.275831445896958607E-31, 1.000000000000000000, 1.224646799147353207E-16 ) ) ;
#205 = FACE_OUTER_BOUND ( 'NONE', #181, .T. ) ;
#206 = DIRECTION ( 'NONE',  ( 0.0000000000000000000, 1.000000000000000000, 0.0000000000000000000 ) ) ;
#207 = APPROVAL_DATE_TIME ( #2, #120 ) ;
#208 = AXIS2_PLACEMENT_3D ( 'NONE', #26, #11, #77 ) ;
#209 = AXIS2_PLACEMENT_3D ( 'NONE', #184, #169, #187 ) ;
#210 = CALENDAR_DATE ( 2021, 8, 10 ) ;
#211 = ORIENTED_EDGE ( 'NONE', *, *, #56, .F. ) ;
#212 = CC_DESIGN_PERSON_AND_ORGANIZATION_ASSIGNMENT ( #106, #118, ( #63 ) ) ;
#213 = CIRCLE ( 'NONE', #124, 0.9299999999999957190 ) ;
#214 = EDGE_LOOP ( 'NONE', ( #180 ) ) ;
#215 = FACE_OUTER_BOUND ( 'NONE', #10, .T. ) ;
#216 = APPLICATION_CONTEXT ( 'configuration controlled 3d designs of mechanical parts and assemblies' ) ;
#217 = DIRECTION ( 'NONE',  ( -3.491481338843133355E-15, 1.224646799147353207E-16, -1.000000000000000000 ) ) ;
#218 = ORIENTED_EDGE ( 'NONE', *, *, #17, .T. ) ;
#219 = CARTESIAN_POINT ( 'NONE',  ( 0.0000000000000000000, 0.0000000000000000000, 0.0000000000000000000 ) ) ;
#220 =( NAMED_UNIT ( * ) PLANE_ANGLE_UNIT ( ) SI_UNIT ( $, .RADIAN. ) );
#221 = APPLICATION_PROTOCOL_DEFINITION ( 'international standard', 'config_control_design', 1994, #191 ) ;
#222 = PERSON_AND_ORGANIZATION ( #140, #18 ) ;
#223 = CONICAL_SURFACE ( 'NONE', #208, 0.9999999999999970024, 0.5235987755982850489 ) ;
ENDSEC;
END-ISO-10303-21;
