ISO-10303-21;
HEADER;
FILE_DESCRIPTION (( 'STEP AP203' ),
    '1' );
FILE_NAME ('61385.step',
    '2021-10-07T13:48:29',
    ( '' ),
    ( '' ),
    'SwSTEP 2.0',
    'SolidWorks 2019',
    '' );
FILE_SCHEMA (( 'CONFIG_CONTROL_DESIGN' ));
ENDSEC;

DATA;
#1 = PERSON_AND_ORGANIZATION ( #19, #138 ) ;
#2 = AXIS2_PLACEMENT_3D ( 'NONE', #149, #117, #133 ) ;
#3 = EDGE_CURVE ( 'NONE', #146, #146, #79, .T. ) ;
#4 = CONICAL_SURFACE ( 'NONE', #145, 0.9299999999999936096, 1.029744258676649649 ) ;
#5 = ORIENTED_EDGE ( 'NONE', *, *, #34, .T. ) ;
#6 = MANIFOLD_SOLID_BREP ( 'Corps-Déplacer/Copier1[1]', #125 ) ;
#7 = ORIENTED_EDGE ( 'NONE', *, *, #198, .F. ) ;
#8 = CC_DESIGN_PERSON_AND_ORGANIZATION_ASSIGNMENT ( #179, #87, ( #171 ) ) ;
#9 = EDGE_LOOP ( 'NONE', ( #7 ) ) ;
#10 = EDGE_LOOP ( 'NONE', ( #5 ) ) ;
#11 = ORIENTED_EDGE ( 'NONE', *, *, #81, .T. ) ;
#12 = FACE_OUTER_BOUND ( 'NONE', #217, .T. ) ;
#13 = DIRECTION ( 'NONE',  ( -4.141784826639245724E-31, -1.000000000000000000, -1.165808787618830089E-16 ) ) ;
#14 = APPROVAL ( #83, 'UNSPECIFIED' ) ;
#15 = AXIS2_PLACEMENT_3D ( 'NONE', #23, #163, #201 ) ;
#16 = ADVANCED_FACE ( 'NONE', ( #53, #212 ), #161, .T. ) ;
#17 = DATE_AND_TIME ( #136, #29 ) ;
#18 = APPROVAL_ROLE ( '' ) ;
#19 = PERSON ( 'UNSPECIFIED', 'UNSPECIFIED', 'UNSPECIFIED', ('UNSPECIFIED'), ('UNSPECIFIED'), ('UNSPECIFIED') ) ;
#20 = DATE_TIME_ROLE ( 'classification_date' ) ;
#21 = CONICAL_SURFACE ( 'NONE', #69, 0.7999999999999996003, 0.7853981633974507215 ) ;
#22 = ORIENTED_EDGE ( 'NONE', *, *, #34, .F. ) ;
#23 = CARTESIAN_POINT ( 'NONE',  ( 1.326762908760390423E-13, 5.999039130647358587E-33, 38.00000000000000000 ) ) ;
#24 = EDGE_LOOP ( 'NONE', ( #71 ) ) ;
#25 = EDGE_CURVE ( 'NONE', #101, #101, #196, .T. ) ;
#26 = FACE_OUTER_BOUND ( 'NONE', #70, .T. ) ;
#27 = COORDINATED_UNIVERSAL_TIME_OFFSET ( 1, 0, .AHEAD. ) ;
#28 = ADVANCED_BREP_SHAPE_REPRESENTATION ( '61385', ( #6, #76, #120 ), #88 ) ;
#29 = LOCAL_TIME ( 15, 48, 29.00000000000000000, #67 ) ;
#30 = PERSON_AND_ORGANIZATION ( #19, #138 ) ;
#31 = PLANE ( 'NONE',  #150 ) ;
#32 = APPLICATION_PROTOCOL_DEFINITION ( 'international standard', 'config_control_design', 1994, #142 ) ;
#33 = DATE_AND_TIME ( #64, #183 ) ;
#34 = EDGE_CURVE ( 'NONE', #46, #46, #59, .T. ) ;
#35 = DIRECTION ( 'NONE',  ( -3.491481338843133355E-15, 1.224646799147353207E-16, -1.000000000000000000 ) ) ;
#36 = CIRCLE ( 'NONE', #191, 0.9299999999999957190 ) ;
#37 = DIRECTION ( 'NONE',  ( -3.491481338843133355E-15, 1.224646799147353207E-16, -1.000000000000000000 ) ) ;
#38 = ADVANCED_FACE ( 'NONE', ( #93 ), #126, .F. ) ;
#39 = CARTESIAN_POINT ( 'NONE',  ( 1.326762908760390423E-13, -4.653657836759941941E-15, 38.00000000000000000 ) ) ;
#40 = FACE_OUTER_BOUND ( 'NONE', #89, .T. ) ;
#41 = AXIS2_PLACEMENT_3D ( 'NONE', #56, #129, #199 ) ;
#42 = CARTESIAN_POINT ( 'NONE',  ( 1.951041083879836101E-15, -6.843330914579958779E-17, 0.5588003756956333445 ) ) ;
#43 = CARTESIAN_POINT ( 'NONE',  ( 1.951041083879836101E-15, -6.843330914579958779E-17, 0.5588003756956333445 ) ) ;
#44 = CC_DESIGN_PERSON_AND_ORGANIZATION_ASSIGNMENT ( #194, #153, ( #49 ) ) ;
#45 = APPROVAL_PERSON_ORGANIZATION ( #1, #96, #135 ) ;
#46 = VERTEX_POINT ( 'NONE', #102 ) ;
#47 = APPLICATION_PROTOCOL_DEFINITION ( 'international standard', 'config_control_design', 1994, #164 ) ;
#48 = APPROVAL_PERSON_ORGANIZATION ( #82, #14, #207 ) ;
#49 = PRODUCT_DEFINITION ( 'UNKNOWN', '', #171, #178 ) ;
#50 = CALENDAR_DATE ( 2021, 7, 10 ) ;
#51 = APPROVAL_DATE_TIME ( #84, #14 ) ;
#52 = DIRECTION ( 'NONE',  ( -3.491481338843133355E-15, 1.224646799147353207E-16, -1.000000000000000000 ) ) ;
#53 = FACE_OUTER_BOUND ( 'NONE', #9, .T. ) ;
#54 = SECURITY_CLASSIFICATION ( '', '', #176 ) ;
#55 = CC_DESIGN_DATE_AND_TIME_ASSIGNMENT ( #33, #68, ( #49 ) ) ;
#56 = CARTESIAN_POINT ( 'NONE',  ( 4.189777606611760026E-14, 6.973882989377582043E-33, 12.00000000000000000 ) ) ;
#57 = EDGE_LOOP ( 'NONE', ( #90 ) ) ;
#58 = FACE_OUTER_BOUND ( 'NONE', #72, .T. ) ;
#59 = CIRCLE ( 'NONE', #99, 0.9999999999999993339 ) ;
#60 = CLOSED_SHELL ( 'NONE', ( #165, #221, #74 ) ) ;
#61 = CARTESIAN_POINT ( 'NONE',  ( 0.0000000000000000000, 0.0000000000000000000, 0.0000000000000000000 ) ) ;
#62 = FACE_OUTER_BOUND ( 'NONE', #116, .T. ) ;
#63 = APPROVAL_DATE_TIME ( #157, #96 ) ;
#64 = CALENDAR_DATE ( 2021, 7, 10 ) ;
#65 = AXIS2_PLACEMENT_3D ( 'NONE', #200, #139, #213 ) ;
#66 = COORDINATED_UNIVERSAL_TIME_OFFSET ( 1, 0, .AHEAD. ) ;
#67 = COORDINATED_UNIVERSAL_TIME_OFFSET ( 1, 0, .AHEAD. ) ;
#68 = DATE_TIME_ROLE ( 'creation_date' ) ;
#69 = AXIS2_PLACEMENT_3D ( 'NONE', #39, #113, #167 ) ;
#70 = EDGE_LOOP ( 'NONE', ( #95 ) ) ;
#71 = ORIENTED_EDGE ( 'NONE', *, *, #25, .T. ) ;
#72 = EDGE_LOOP ( 'NONE', ( #91 ) ) ;
#73 = CC_DESIGN_APPROVAL ( #96, ( #54 ) ) ;
#74 = ADVANCED_FACE ( 'NONE', ( #26 ), #215, .T. ) ;
#75 = EDGE_LOOP ( 'NONE', ( #187 ) ) ;
#76 = MANIFOLD_SOLID_BREP ( 'Corps-Déplacer/Copier1[2]', #60 ) ;
#77 = EDGE_LOOP ( 'NONE', ( #137 ) ) ;
#78 = DIRECTION ( 'NONE',  ( 4.275831445896958607E-31, 1.000000000000000000, 1.224646799147353454E-16 ) ) ;
#79 = CIRCLE ( 'NONE', #65, 0.9299999999999957190 ) ;
#80 = DIRECTION ( 'NONE',  ( -3.491481338843133355E-15, 1.224646799147353207E-16, -1.000000000000000000 ) ) ;
#81 = EDGE_CURVE ( 'NONE', #123, #123, #36, .T. ) ;
#82 = PERSON_AND_ORGANIZATION ( #19, #138 ) ;
#83 = APPROVAL_STATUS ( 'not_yet_approved' ) ;
#84 = DATE_AND_TIME ( #50, #218 ) ;
#85 = COORDINATED_UNIVERSAL_TIME_OFFSET ( 1, 0, .AHEAD. ) ;
#86 = PERSON_AND_ORGANIZATION ( #19, #138 ) ;
#87 = PERSON_AND_ORGANIZATION_ROLE ( 'creator' ) ;
#88 =( GEOMETRIC_REPRESENTATION_CONTEXT ( 3 ) GLOBAL_UNCERTAINTY_ASSIGNED_CONTEXT ( ( #166 ) ) GLOBAL_UNIT_ASSIGNED_CONTEXT ( ( #220, #219, #202 ) ) REPRESENTATION_CONTEXT ( 'NONE', 'WORKASPACE' ) );
#89 = EDGE_LOOP ( 'NONE', ( #22 ) ) ;
#90 = ORIENTED_EDGE ( 'NONE', *, *, #3, .F. ) ;
#91 = ORIENTED_EDGE ( 'NONE', *, *, #3, .T. ) ;
#92 = ADVANCED_FACE ( 'NONE', ( #40, #184 ), #21, .T. ) ;
#93 = FACE_OUTER_BOUND ( 'NONE', #75, .T. ) ;
#94 = LOCAL_TIME ( 15, 48, 29.00000000000000000, #182 ) ;
#95 = ORIENTED_EDGE ( 'NONE', *, *, #81, .F. ) ;
#96 = APPROVAL ( #208, 'UNSPECIFIED' ) ;
#97 = MECHANICAL_CONTEXT ( 'NONE', #142, 'mechanical' ) ;
#98 = DIRECTION ( 'NONE',  ( 3.491481338843133355E-15, -1.224646799147353207E-16, 1.000000000000000000 ) ) ;
#99 = AXIS2_PLACEMENT_3D ( 'NONE', #197, #52, #112 ) ;
#100 = CARTESIAN_POINT ( 'NONE',  ( 4.189777606611760026E-14, 0.9299999999999941647, 12.00000000000000000 ) ) ;
#101 = VERTEX_POINT ( 'NONE', #148 ) ;
#102 = CARTESIAN_POINT ( 'NONE',  ( 1.319779946082704535E-13, 0.9999999999999947820, 37.79999999999999716 ) ) ;
#103 = AXIS2_PLACEMENT_3D ( 'NONE', #61, #122, #78 ) ;
#104 = APPROVAL_STATUS ( 'not_yet_approved' ) ;
#105 = CALENDAR_DATE ( 2021, 7, 10 ) ;
#106 = PERSON_AND_ORGANIZATION ( #19, #138 ) ;
#107 = CONICAL_SURFACE ( 'NONE', #124, 0.9999999999999970024, 0.5235987755982850489 ) ;
#108 = PRODUCT_RELATED_PRODUCT_CATEGORY ( 'detail', '', ( #144 ) ) ;
#109 = APPROVAL_DATE_TIME ( #17, #127 ) ;
#110 = APPROVAL_PERSON_ORGANIZATION ( #106, #127, #18 ) ;
#111 = EDGE_LOOP ( 'NONE', ( #188 ) ) ;
#112 = DIRECTION ( 'NONE',  ( 0.0000000000000000000, 1.000000000000000000, 0.0000000000000000000 ) ) ;
#113 = DIRECTION ( 'NONE',  ( -3.491481338843133355E-15, 1.224646799147353207E-16, -1.000000000000000000 ) ) ;
#114 = CARTESIAN_POINT ( 'NONE',  ( 4.232109568119646980E-14, -1.484424212318973383E-15, 12.12124355652982821 ) ) ;
#115 = CC_DESIGN_APPROVAL ( #14, ( #49 ) ) ;
#116 = EDGE_LOOP ( 'NONE', ( #162 ) ) ;
#117 = DIRECTION ( 'NONE',  ( -3.491481338843133355E-15, 1.224646799147353207E-16, -1.000000000000000000 ) ) ;
#118 = DIRECTION ( 'NONE',  ( 0.0000000000000000000, 0.0000000000000000000, 1.000000000000000000 ) ) ;
#119 = PRODUCT_DEFINITION_SHAPE ( 'NONE', 'NONE',  #49 ) ;
#120 = AXIS2_PLACEMENT_3D ( 'NONE', #204, #118, #190 ) ;
#121 = PERSON_AND_ORGANIZATION_ROLE ( 'design_owner' ) ;
#122 = DIRECTION ( 'NONE',  ( -3.491481338843133355E-15, 1.224646799147353207E-16, -1.000000000000000000 ) ) ;
#123 = VERTEX_POINT ( 'NONE', #189 ) ;
#124 = AXIS2_PLACEMENT_3D ( 'NONE', #114, #168, #141 ) ;
#125 = CLOSED_SHELL ( 'NONE', ( #159, #151, #16, #92, #38 ) ) ;
#126 = PLANE ( 'NONE',  #15 ) ;
#127 = APPROVAL ( #104, 'UNSPECIFIED' ) ;
#128 = CARTESIAN_POINT ( 'NONE',  ( 0.0000000000000000000, 0.0000000000000000000, 0.0000000000000000000 ) ) ;
#129 = DIRECTION ( 'NONE',  ( 3.491481338843133355E-15, -1.224646799147353207E-16, 1.000000000000000000 ) ) ;
#130 = DIRECTION ( 'NONE',  ( 0.0000000000000000000, 1.000000000000000000, 0.0000000000000000000 ) ) ;
#131 = CARTESIAN_POINT ( 'NONE',  ( 4.189777606611760026E-14, -1.469576158976823947E-15, 12.00000000000000000 ) ) ;
#132 = CARTESIAN_POINT ( 'NONE',  ( 4.189777606611760026E-14, 6.973882989377582043E-33, 12.00000000000000000 ) ) ;
#133 = DIRECTION ( 'NONE',  ( 0.0000000000000000000, 1.000000000000000000, 0.0000000000000000000 ) ) ;
#134 = DIRECTION ( 'NONE',  ( 3.491481338843133355E-15, -1.224646799147353207E-16, 1.000000000000000000 ) ) ;
#135 = APPROVAL_ROLE ( '' ) ;
#136 = CALENDAR_DATE ( 2021, 7, 10 ) ;
#137 = ORIENTED_EDGE ( 'NONE', *, *, #210, .T. ) ;
#138 = ORGANIZATION ( 'UNSPECIFIED', 'UNSPECIFIED', '' ) ;
#139 = DIRECTION ( 'NONE',  ( -3.491481338843133355E-15, 1.224646799147353207E-16, -1.000000000000000000 ) ) ;
#140 = FACE_BOUND ( 'NONE', #57, .T. ) ;
#141 = DIRECTION ( 'NONE',  ( 0.0000000000000000000, -1.000000000000000000, 0.0000000000000000000 ) ) ;
#142 = APPLICATION_CONTEXT ( 'configuration controlled 3d designs of mechanical parts and assemblies' ) ;
#143 = VERTEX_POINT ( 'NONE', #193 ) ;
#144 = PRODUCT ( '61385', '61385', '', ( #97 ) ) ;
#145 = AXIS2_PLACEMENT_3D ( 'NONE', #43, #134, #13 ) ;
#146 = VERTEX_POINT ( 'NONE', #100 ) ;
#147 = CC_DESIGN_PERSON_AND_ORGANIZATION_ASSIGNMENT ( #152, #155, ( #54 ) ) ;
#148 = CARTESIAN_POINT ( 'NONE',  ( 1.951041083879836495E-15, 0.9299999999999934985, 0.5588003756956334556 ) ) ;
#149 = CARTESIAN_POINT ( 'NONE',  ( 4.232109568119646980E-14, -1.484424212318973383E-15, 12.12124355652982821 ) ) ;
#150 = AXIS2_PLACEMENT_3D ( 'NONE', #132, #98, #169 ) ;
#151 = ADVANCED_FACE ( 'NONE', ( #140, #216 ), #107, .T. ) ;
#152 = PERSON_AND_ORGANIZATION ( #19, #138 ) ;
#153 = PERSON_AND_ORGANIZATION_ROLE ( 'creator' ) ;
#154 = CC_DESIGN_APPROVAL ( #127, ( #171 ) ) ;
#155 = PERSON_AND_ORGANIZATION_ROLE ( 'classification_officer' ) ;
#156 = DATE_AND_TIME ( #181, #94 ) ;
#157 = DATE_AND_TIME ( #105, #180 ) ;
#158 = AXIS2_PLACEMENT_3D ( 'NONE', #222, #80, #223 ) ;
#159 = ADVANCED_FACE ( 'NONE', ( #58 ), #31, .F. ) ;
#160 = AXIS2_PLACEMENT_3D ( 'NONE', #42, #37, #185 ) ;
#161 = CYLINDRICAL_SURFACE ( 'NONE', #209, 0.9999999999999983347 ) ;
#162 = ORIENTED_EDGE ( 'NONE', *, *, #25, .F. ) ;
#163 = DIRECTION ( 'NONE',  ( -3.491481338843133355E-15, 1.224646799147353207E-16, -1.000000000000000000 ) ) ;
#164 = APPLICATION_CONTEXT ( 'configuration controlled 3d designs of mechanical parts and assemblies' ) ;
#165 = ADVANCED_FACE ( 'NONE', ( #172 ), #4, .T. ) ;
#166 = UNCERTAINTY_MEASURE_WITH_UNIT (LENGTH_MEASURE( 1.000000000000000082E-05 ), #220, 'distance_accuracy_value', 'NONE');
#167 = DIRECTION ( 'NONE',  ( 0.0000000000000000000, 1.000000000000000000, 0.0000000000000000000 ) ) ;
#168 = DIRECTION ( 'NONE',  ( 3.491481338843133355E-15, -1.224646799147353207E-16, 1.000000000000000000 ) ) ;
#169 = DIRECTION ( 'NONE',  ( -4.275831445896958607E-31, -1.000000000000000000, -1.224646799147353207E-16 ) ) ;
#170 = CYLINDRICAL_SURFACE ( 'NONE', #103, 0.9299999999999946088 ) ;
#171 = PRODUCT_DEFINITION_FORMATION_WITH_SPECIFIED_SOURCE ( 'ANY', '', #144, .NOT_KNOWN. ) ;
#172 = FACE_OUTER_BOUND ( 'NONE', #24, .T. ) ;
#173 = CARTESIAN_POINT ( 'NONE',  ( 1.326762908760390423E-13, 0.7999999999999949374, 38.00000000000000000 ) ) ;
#174 = CC_DESIGN_PERSON_AND_ORGANIZATION_ASSIGNMENT ( #86, #211, ( #171 ) ) ;
#175 = CIRCLE ( 'NONE', #158, 0.7999999999999996003 ) ;
#176 = SECURITY_CLASSIFICATION_LEVEL ( 'unclassified' ) ;
#177 = SHAPE_DEFINITION_REPRESENTATION ( #119, #28 ) ;
#178 = DESIGN_CONTEXT ( 'detailed design', #164, 'design' ) ;
#179 = PERSON_AND_ORGANIZATION ( #19, #138 ) ;
#180 = LOCAL_TIME ( 15, 48, 29.00000000000000000, #85 ) ;
#181 = CALENDAR_DATE ( 2021, 7, 10 ) ;
#182 = COORDINATED_UNIVERSAL_TIME_OFFSET ( 1, 0, .AHEAD. ) ;
#183 = LOCAL_TIME ( 15, 48, 29.00000000000000000, #66 ) ;
#184 = FACE_BOUND ( 'NONE', #77, .T. ) ;
#185 = DIRECTION ( 'NONE',  ( 4.141784826639245724E-31, 1.000000000000000000, 1.165808787618830089E-16 ) ) ;
#186 = DIRECTION ( 'NONE',  ( -3.491481338843133355E-15, 1.224646799147353207E-16, -1.000000000000000000 ) ) ;
#187 = ORIENTED_EDGE ( 'NONE', *, *, #210, .F. ) ;
#188 = ORIENTED_EDGE ( 'NONE', *, *, #198, .T. ) ;
#189 = CARTESIAN_POINT ( 'NONE',  ( 4.189777606611760026E-14, 0.9299999999999941647, 12.00000000000000000 ) ) ;
#190 = DIRECTION ( 'NONE',  ( 1.000000000000000000, 0.0000000000000000000, 0.0000000000000000000 ) ) ;
#191 = AXIS2_PLACEMENT_3D ( 'NONE', #131, #35, #130 ) ;
#192 = CC_DESIGN_PERSON_AND_ORGANIZATION_ASSIGNMENT ( #30, #121, ( #144 ) ) ;
#193 = CARTESIAN_POINT ( 'NONE',  ( 4.232109568119646980E-14, 0.9999999999999954481, 12.12124355652982821 ) ) ;
#194 = PERSON_AND_ORGANIZATION ( #19, #138 ) ;
#195 = DIRECTION ( 'NONE',  ( 4.275831445896958607E-31, 1.000000000000000000, 1.224646799147353207E-16 ) ) ;
#196 = CIRCLE ( 'NONE', #160, 0.9299999999999936096 ) ;
#197 = CARTESIAN_POINT ( 'NONE',  ( 1.319779946082704535E-13, -4.629164900776995227E-15, 37.79999999999999716 ) ) ;
#198 = EDGE_CURVE ( 'NONE', #143, #143, #214, .T. ) ;
#199 = DIRECTION ( 'NONE',  ( -4.275831445896958607E-31, -1.000000000000000000, -1.224646799147353207E-16 ) ) ;
#200 = CARTESIAN_POINT ( 'NONE',  ( 4.189777606611760026E-14, -1.469576158976823947E-15, 12.00000000000000000 ) ) ;
#201 = DIRECTION ( 'NONE',  ( 4.275831445896958607E-31, 1.000000000000000000, 1.224646799147353207E-16 ) ) ;
#202 =( NAMED_UNIT ( * ) SI_UNIT ( $, .STERADIAN. ) SOLID_ANGLE_UNIT ( ) );
#203 = CC_DESIGN_DATE_AND_TIME_ASSIGNMENT ( #156, #20, ( #54 ) ) ;
#204 = CARTESIAN_POINT ( 'NONE',  ( 0.0000000000000000000, 0.0000000000000000000, 0.0000000000000000000 ) ) ;
#205 = CC_DESIGN_SECURITY_CLASSIFICATION ( #54, ( #171 ) ) ;
#206 = VERTEX_POINT ( 'NONE', #173 ) ;
#207 = APPROVAL_ROLE ( '' ) ;
#208 = APPROVAL_STATUS ( 'not_yet_approved' ) ;
#209 = AXIS2_PLACEMENT_3D ( 'NONE', #128, #186, #195 ) ;
#210 = EDGE_CURVE ( 'NONE', #206, #206, #175, .T. ) ;
#211 = PERSON_AND_ORGANIZATION_ROLE ( 'design_supplier' ) ;
#212 = FACE_OUTER_BOUND ( 'NONE', #10, .T. ) ;
#213 = DIRECTION ( 'NONE',  ( 0.0000000000000000000, 1.000000000000000000, 0.0000000000000000000 ) ) ;
#214 = CIRCLE ( 'NONE', #2, 0.9999999999999970024 ) ;
#215 = PLANE ( 'NONE',  #41 ) ;
#216 = FACE_OUTER_BOUND ( 'NONE', #111, .T. ) ;
#217 = EDGE_LOOP ( 'NONE', ( #11 ) ) ;
#218 = LOCAL_TIME ( 15, 48, 29.00000000000000000, #27 ) ;
#219 =( NAMED_UNIT ( * ) PLANE_ANGLE_UNIT ( ) SI_UNIT ( $, .RADIAN. ) );
#220 =( LENGTH_UNIT ( ) NAMED_UNIT ( * ) SI_UNIT ( .MILLI., .METRE. ) );
#221 = ADVANCED_FACE ( 'NONE', ( #62, #12 ), #170, .T. ) ;
#222 = CARTESIAN_POINT ( 'NONE',  ( 1.326762908760390423E-13, -4.653657836759941941E-15, 38.00000000000000000 ) ) ;
#223 = DIRECTION ( 'NONE',  ( 0.0000000000000000000, 1.000000000000000000, 0.0000000000000000000 ) ) ;
ENDSEC;
END-ISO-10303-21;
