ISO-10303-21;
HEADER;
FILE_DESCRIPTION (( 'STEP AP203' ),
    '1' );
FILE_NAME ('61384.step',
    '2021-10-08T05:16:09',
    ( '' ),
    ( '' ),
    'SwSTEP 2.0',
    'SolidWorks 2019',
    '' );
FILE_SCHEMA (( 'CONFIG_CONTROL_DESIGN' ));
ENDSEC;

DATA;
#1 = DIRECTION ( 'NONE',  ( 3.491481338843133355E-15, -1.224646799147353207E-16, 1.000000000000000000 ) ) ;
#2 = CARTESIAN_POINT ( 'NONE',  ( 1.326762908760390423E-13, 5.999039130647358587E-33, 38.00000000000000000 ) ) ;
#3 = CARTESIAN_POINT ( 'NONE',  ( 1.326762908760390423E-13, -4.653657836759941941E-15, 38.00000000000000000 ) ) ;
#4 = PLANE ( 'NONE',  #80 ) ;
#5 = CARTESIAN_POINT ( 'NONE',  ( 4.226062145047090709E-14, -1.482303061841523097E-15, 12.10392304845413491 ) ) ;
#6 = DATE_AND_TIME ( #133, #12 ) ;
#7 = CARTESIAN_POINT ( 'NONE',  ( 1.972020020265641062E-15, 0.9399999999999936184, 0.5648089818859091116 ) ) ;
#8 = AXIS2_PLACEMENT_3D ( 'NONE', #157, #24, #112 ) ;
#9 = PERSON_AND_ORGANIZATION ( #176, #99 ) ;
#10 = COORDINATED_UNIVERSAL_TIME_OFFSET ( 1, 0, .AHEAD. ) ;
#11 = DATE_AND_TIME ( #101, #195 ) ;
#12 = LOCAL_TIME ( 7, 16, 9.000000000000000000, #10 ) ;
#13 = ORIENTED_EDGE ( 'NONE', *, *, #26, .F. ) ;
#14 = DIRECTION ( 'NONE',  ( -3.491481338843133355E-15, 1.224646799147353207E-16, -1.000000000000000000 ) ) ;
#15 = ORIENTED_EDGE ( 'NONE', *, *, #161, .T. ) ;
#16 = PRODUCT_DEFINITION ( 'UNKNOWN', '', #52, #213 ) ;
#17 = PRODUCT ( '61384', '61384', '', ( #145 ) ) ;
#18 = CARTESIAN_POINT ( 'NONE',  ( 0.0000000000000000000, 0.0000000000000000000, 0.0000000000000000000 ) ) ;
#19 = AXIS2_PLACEMENT_3D ( 'NONE', #204, #14, #138 ) ;
#20 = DIRECTION ( 'NONE',  ( 4.275831445896958607E-31, 1.000000000000000000, 1.224646799147352961E-16 ) ) ;
#21 = DIRECTION ( 'NONE',  ( -3.491481338843133355E-15, 1.224646799147353207E-16, -1.000000000000000000 ) ) ;
#22 = DIRECTION ( 'NONE',  ( -3.491481338843133355E-15, 1.224646799147353207E-16, -1.000000000000000000 ) ) ;
#23 = CIRCLE ( 'NONE', #19, 0.9399999999999952838 ) ;
#24 = DIRECTION ( 'NONE',  ( -3.491481338843133355E-15, 1.224646799147353207E-16, -1.000000000000000000 ) ) ;
#25 = CC_DESIGN_APPROVAL ( #113, ( #151 ) ) ;
#26 = EDGE_CURVE ( 'NONE', #109, #109, #23, .T. ) ;
#27 = PERSON_AND_ORGANIZATION ( #176, #99 ) ;
#28 = CIRCLE ( 'NONE', #150, 0.9399999999999952838 ) ;
#29 = LOCAL_TIME ( 7, 16, 9.000000000000000000, #131 ) ;
#30 = EDGE_CURVE ( 'NONE', #158, #158, #98, .T. ) ;
#31 = SECURITY_CLASSIFICATION_LEVEL ( 'unclassified' ) ;
#32 = AXIS2_PLACEMENT_3D ( 'NONE', #141, #39, #74 ) ;
#33 = EDGE_LOOP ( 'NONE', ( #218 ) ) ;
#34 = ORIENTED_EDGE ( 'NONE', *, *, #40, .T. ) ;
#35 = FACE_BOUND ( 'NONE', #149, .T. ) ;
#36 = PLANE ( 'NONE',  #32 ) ;
#37 = CARTESIAN_POINT ( 'NONE',  ( 4.189777606611760026E-14, 0.9399999999999938405, 12.00000000000000000 ) ) ;
#38 = DIRECTION ( 'NONE',  ( 0.0000000000000000000, 1.000000000000000000, 0.0000000000000000000 ) ) ;
#39 = DIRECTION ( 'NONE',  ( 3.491481338843133355E-15, -1.224646799147353207E-16, 1.000000000000000000 ) ) ;
#40 = EDGE_CURVE ( 'NONE', #140, #140, #28, .T. ) ;
#41 = PERSON_AND_ORGANIZATION_ROLE ( 'design_supplier' ) ;
#42 = PERSON_AND_ORGANIZATION ( #176, #99 ) ;
#43 = COORDINATED_UNIVERSAL_TIME_OFFSET ( 1, 0, .AHEAD. ) ;
#44 = APPROVAL_DATE_TIME ( #6, #148 ) ;
#45 = COORDINATED_UNIVERSAL_TIME_OFFSET ( 1, 0, .AHEAD. ) ;
#46 = SHAPE_DEFINITION_REPRESENTATION ( #186, #142 ) ;
#47 = AXIS2_PLACEMENT_3D ( 'NONE', #210, #59, #38 ) ;
#48 = CONICAL_SURFACE ( 'NONE', #146, 0.9999999999999963363, 0.5235987755982949299 ) ;
#49 = EDGE_LOOP ( 'NONE', ( #15 ) ) ;
#50 = CC_DESIGN_PERSON_AND_ORGANIZATION_ASSIGNMENT ( #168, #196, ( #52 ) ) ;
#51 = PERSON_AND_ORGANIZATION ( #176, #99 ) ;
#52 = PRODUCT_DEFINITION_FORMATION_WITH_SPECIFIED_SOURCE ( 'ANY', '', #17, .NOT_KNOWN. ) ;
#53 = AXIS2_PLACEMENT_3D ( 'NONE', #155, #211, #54 ) ;
#54 = DIRECTION ( 'NONE',  ( -4.275831445896958607E-31, -1.000000000000000000, -1.224646799147353207E-16 ) ) ;
#55 = DIRECTION ( 'NONE',  ( 0.0000000000000000000, 1.000000000000000000, 0.0000000000000000000 ) ) ;
#56 = CONICAL_SURFACE ( 'NONE', #87, 0.9399999999999937295, 1.029744258676649649 ) ;
#57 = DIRECTION ( 'NONE',  ( -3.491481338843133355E-15, 1.224646799147353207E-16, -1.000000000000000000 ) ) ;
#58 = FACE_OUTER_BOUND ( 'NONE', #135, .T. ) ;
#59 = DIRECTION ( 'NONE',  ( -3.491481338843133355E-15, 1.224646799147353207E-16, -1.000000000000000000 ) ) ;
#60 = UNCERTAINTY_MEASURE_WITH_UNIT (LENGTH_MEASURE( 1.000000000000000082E-05 ), #134, 'distance_accuracy_value', 'NONE');
#61 = CC_DESIGN_SECURITY_CLASSIFICATION ( #151, ( #52 ) ) ;
#62 = PERSON_AND_ORGANIZATION ( #176, #99 ) ;
#63 = DATE_TIME_ROLE ( 'creation_date' ) ;
#64 = ADVANCED_FACE ( 'NONE', ( #92 ), #56, .T. ) ;
#65 = APPROVAL_STATUS ( 'not_yet_approved' ) ;
#66 = APPROVAL_ROLE ( '' ) ;
#67 = EDGE_CURVE ( 'NONE', #84, #84, #72, .T. ) ;
#68 = ORIENTED_EDGE ( 'NONE', *, *, #184, .T. ) ;
#69 = ORIENTED_EDGE ( 'NONE', *, *, #30, .F. ) ;
#70 = APPROVAL_PERSON_ORGANIZATION ( #62, #148, #66 ) ;
#71 = APPROVAL_DATE_TIME ( #170, #113 ) ;
#72 = CIRCLE ( 'NONE', #136, 0.7999999999999996003 ) ;
#73 = CC_DESIGN_APPROVAL ( #148, ( #16 ) ) ;
#74 = DIRECTION ( 'NONE',  ( -4.275831445896958607E-31, -1.000000000000000000, -1.224646799147353207E-16 ) ) ;
#75 = CARTESIAN_POINT ( 'NONE',  ( 1.326762908760390423E-13, -4.653657836759941941E-15, 38.00000000000000000 ) ) ;
#76 = CARTESIAN_POINT ( 'NONE',  ( 4.226062145047090709E-14, 0.9999999999999947820, 12.10392304845413491 ) ) ;
#77 = CIRCLE ( 'NONE', #215, 0.9999999999999993339 ) ;
#78 = FACE_OUTER_BOUND ( 'NONE', #49, .T. ) ;
#79 = DIRECTION ( 'NONE',  ( -3.491481338843133355E-15, 1.224646799147353207E-16, -1.000000000000000000 ) ) ;
#80 = AXIS2_PLACEMENT_3D ( 'NONE', #2, #22, #178 ) ;
#81 = DIRECTION ( 'NONE',  ( 0.0000000000000000000, 0.0000000000000000000, 1.000000000000000000 ) ) ;
#82 = PERSON_AND_ORGANIZATION_ROLE ( 'classification_officer' ) ;
#83 = VERTEX_POINT ( 'NONE', #7 ) ;
#84 = VERTEX_POINT ( 'NONE', #199 ) ;
#85 = ORIENTED_EDGE ( 'NONE', *, *, #67, .T. ) ;
#86 = APPROVAL_ROLE ( '' ) ;
#87 = AXIS2_PLACEMENT_3D ( 'NONE', #205, #1, #188 ) ;
#88 = EDGE_LOOP ( 'NONE', ( #34 ) ) ;
#89 =( GEOMETRIC_REPRESENTATION_CONTEXT ( 3 ) GLOBAL_UNCERTAINTY_ASSIGNED_CONTEXT ( ( #60 ) ) GLOBAL_UNIT_ASSIGNED_CONTEXT ( ( #134, #181, #97 ) ) REPRESENTATION_CONTEXT ( 'NONE', 'WORKASPACE' ) );
#90 = DIRECTION ( 'NONE',  ( 0.0000000000000000000, -1.000000000000000000, 0.0000000000000000000 ) ) ;
#91 = CARTESIAN_POINT ( 'NONE',  ( 4.189777606611760026E-14, 0.9399999999999938405, 12.00000000000000000 ) ) ;
#92 = FACE_OUTER_BOUND ( 'NONE', #222, .T. ) ;
#93 = APPROVAL_PERSON_ORGANIZATION ( #51, #113, #86 ) ;
#94 = CARTESIAN_POINT ( 'NONE',  ( 0.0000000000000000000, 0.0000000000000000000, 0.0000000000000000000 ) ) ;
#95 = APPROVAL_ROLE ( '' ) ;
#96 = CC_DESIGN_DATE_AND_TIME_ASSIGNMENT ( #163, #63, ( #16 ) ) ;
#97 =( NAMED_UNIT ( * ) SI_UNIT ( $, .STERADIAN. ) SOLID_ANGLE_UNIT ( ) );
#98 = CIRCLE ( 'NONE', #47, 0.9999999999999963363 ) ;
#99 = ORGANIZATION ( 'UNSPECIFIED', 'UNSPECIFIED', '' ) ;
#100 = CARTESIAN_POINT ( 'NONE',  ( 0.0000000000000000000, 0.0000000000000000000, 0.0000000000000000000 ) ) ;
#101 = CALENDAR_DATE ( 2021, 8, 10 ) ;
#102 = APPLICATION_CONTEXT ( 'configuration controlled 3d designs of mechanical parts and assemblies' ) ;
#103 = CALENDAR_DATE ( 2021, 8, 10 ) ;
#104 = EDGE_LOOP ( 'NONE', ( #105 ) ) ;
#105 = ORIENTED_EDGE ( 'NONE', *, *, #67, .F. ) ;
#106 = FACE_BOUND ( 'NONE', #154, .T. ) ;
#107 = CIRCLE ( 'NONE', #8, 0.9399999999999937295 ) ;
#108 = CONICAL_SURFACE ( 'NONE', #156, 0.7999999999999996003, 0.7853981633974507215 ) ;
#109 = VERTEX_POINT ( 'NONE', #91 ) ;
#110 = DIRECTION ( 'NONE',  ( 0.0000000000000000000, 1.000000000000000000, 0.0000000000000000000 ) ) ;
#111 = DIRECTION ( 'NONE',  ( -3.491481338843133355E-15, 1.224646799147353207E-16, -1.000000000000000000 ) ) ;
#112 = DIRECTION ( 'NONE',  ( 4.097723285930316646E-31, 1.000000000000000000, 1.153406566473948655E-16 ) ) ;
#113 = APPROVAL ( #221, 'UNSPECIFIED' ) ;
#114 = CARTESIAN_POINT ( 'NONE',  ( 1.319779946082704535E-13, 0.9999999999999947820, 37.79999999999999716 ) ) ;
#115 = CLOSED_SHELL ( 'NONE', ( #64, #198, #216 ) ) ;
#116 = AXIS2_PLACEMENT_3D ( 'NONE', #94, #79, #20 ) ;
#117 = PERSON_AND_ORGANIZATION_ROLE ( 'creator' ) ;
#118 = LOCAL_TIME ( 7, 16, 9.000000000000000000, #152 ) ;
#119 = CC_DESIGN_PERSON_AND_ORGANIZATION_ASSIGNMENT ( #27, #82, ( #151 ) ) ;
#120 = EDGE_LOOP ( 'NONE', ( #203 ) ) ;
#121 = MANIFOLD_SOLID_BREP ( 'Corps-Déplacer/Copier1[2]', #115 ) ;
#122 = CC_DESIGN_APPROVAL ( #223, ( #52 ) ) ;
#123 = EDGE_LOOP ( 'NONE', ( #173 ) ) ;
#124 = FACE_OUTER_BOUND ( 'NONE', #33, .T. ) ;
#125 = CARTESIAN_POINT ( 'NONE',  ( 1.319779946082704535E-13, -4.629164900776995227E-15, 37.79999999999999716 ) ) ;
#126 = AXIS2_PLACEMENT_3D ( 'NONE', #100, #81, #212 ) ;
#127 = CYLINDRICAL_SURFACE ( 'NONE', #164, 0.9999999999999978906 ) ;
#128 = FACE_OUTER_BOUND ( 'NONE', #120, .T. ) ;
#129 = CYLINDRICAL_SURFACE ( 'NONE', #116, 0.9399999999999943956 ) ;
#130 = DATE_AND_TIME ( #197, #29 ) ;
#131 = COORDINATED_UNIVERSAL_TIME_OFFSET ( 1, 0, .AHEAD. ) ;
#132 = PERSON_AND_ORGANIZATION ( #176, #99 ) ;
#133 = CALENDAR_DATE ( 2021, 8, 10 ) ;
#134 =( LENGTH_UNIT ( ) NAMED_UNIT ( * ) SI_UNIT ( .MILLI., .METRE. ) );
#135 = EDGE_LOOP ( 'NONE', ( #171 ) ) ;
#136 = AXIS2_PLACEMENT_3D ( 'NONE', #75, #57, #143 ) ;
#137 = FACE_OUTER_BOUND ( 'NONE', #187, .T. ) ;
#138 = DIRECTION ( 'NONE',  ( 0.0000000000000000000, 1.000000000000000000, 0.0000000000000000000 ) ) ;
#139 = CC_DESIGN_DATE_AND_TIME_ASSIGNMENT ( #11, #217, ( #151 ) ) ;
#140 = VERTEX_POINT ( 'NONE', #37 ) ;
#141 = CARTESIAN_POINT ( 'NONE',  ( 4.189777606611760026E-14, 7.048870978510672734E-33, 12.00000000000000000 ) ) ;
#142 = ADVANCED_BREP_SHAPE_REPRESENTATION ( '61384', ( #192, #121, #126 ), #89 ) ;
#143 = DIRECTION ( 'NONE',  ( 0.0000000000000000000, 1.000000000000000000, 0.0000000000000000000 ) ) ;
#144 = CC_DESIGN_PERSON_AND_ORGANIZATION_ASSIGNMENT ( #42, #41, ( #52 ) ) ;
#145 = MECHANICAL_CONTEXT ( 'NONE', #102, 'mechanical' ) ;
#146 = AXIS2_PLACEMENT_3D ( 'NONE', #5, #159, #90 ) ;
#147 = APPROVAL_DATE_TIME ( #130, #223 ) ;
#148 = APPROVAL ( #65, 'UNSPECIFIED' ) ;
#149 = EDGE_LOOP ( 'NONE', ( #85 ) ) ;
#150 = AXIS2_PLACEMENT_3D ( 'NONE', #208, #177, #110 ) ;
#151 = SECURITY_CLASSIFICATION ( '', '', #31 ) ;
#152 = COORDINATED_UNIVERSAL_TIME_OFFSET ( 1, 0, .AHEAD. ) ;
#153 = ORIENTED_EDGE ( 'NONE', *, *, #40, .F. ) ;
#154 = EDGE_LOOP ( 'NONE', ( #153 ) ) ;
#155 = CARTESIAN_POINT ( 'NONE',  ( 4.189777606611760026E-14, 7.048870978510672734E-33, 12.00000000000000000 ) ) ;
#156 = AXIS2_PLACEMENT_3D ( 'NONE', #3, #21, #191 ) ;
#157 = CARTESIAN_POINT ( 'NONE',  ( 1.972020020265640667E-15, -6.916915117962538861E-17, 0.5648089818859090006 ) ) ;
#158 = VERTEX_POINT ( 'NONE', #76 ) ;
#159 = DIRECTION ( 'NONE',  ( 3.491481338843133355E-15, -1.224646799147353207E-16, 1.000000000000000000 ) ) ;
#160 = PLANE ( 'NONE',  #53 ) ;
#161 = EDGE_CURVE ( 'NONE', #182, #182, #77, .T. ) ;
#162 = PERSON_AND_ORGANIZATION_ROLE ( 'design_owner' ) ;
#163 = DATE_AND_TIME ( #179, #220 ) ;
#164 = AXIS2_PLACEMENT_3D ( 'NONE', #18, #194, #207 ) ;
#165 = PERSON_AND_ORGANIZATION ( #176, #99 ) ;
#166 = ADVANCED_FACE ( 'NONE', ( #175 ), #4, .F. ) ;
#167 = APPLICATION_PROTOCOL_DEFINITION ( 'international standard', 'config_control_design', 1994, #102 ) ;
#168 = PERSON_AND_ORGANIZATION ( #176, #99 ) ;
#169 = CLOSED_SHELL ( 'NONE', ( #209, #185, #214, #219, #166 ) ) ;
#170 = DATE_AND_TIME ( #103, #118 ) ;
#171 = ORIENTED_EDGE ( 'NONE', *, *, #26, .T. ) ;
#172 = EDGE_LOOP ( 'NONE', ( #13 ) ) ;
#173 = ORIENTED_EDGE ( 'NONE', *, *, #184, .F. ) ;
#174 = FACE_OUTER_BOUND ( 'NONE', #172, .T. ) ;
#175 = FACE_OUTER_BOUND ( 'NONE', #104, .T. ) ;
#176 = PERSON ( 'UNSPECIFIED', 'UNSPECIFIED', 'UNSPECIFIED', ('UNSPECIFIED'), ('UNSPECIFIED'), ('UNSPECIFIED') ) ;
#177 = DIRECTION ( 'NONE',  ( -3.491481338843133355E-15, 1.224646799147353207E-16, -1.000000000000000000 ) ) ;
#178 = DIRECTION ( 'NONE',  ( 4.275831445896958607E-31, 1.000000000000000000, 1.224646799147353207E-16 ) ) ;
#179 = CALENDAR_DATE ( 2021, 8, 10 ) ;
#180 = CC_DESIGN_PERSON_AND_ORGANIZATION_ASSIGNMENT ( #165, #162, ( #17 ) ) ;
#181 =( NAMED_UNIT ( * ) PLANE_ANGLE_UNIT ( ) SI_UNIT ( $, .RADIAN. ) );
#182 = VERTEX_POINT ( 'NONE', #114 ) ;
#183 = APPROVAL_STATUS ( 'not_yet_approved' ) ;
#184 = EDGE_CURVE ( 'NONE', #83, #83, #107, .T. ) ;
#185 = ADVANCED_FACE ( 'NONE', ( #106, #128 ), #48, .T. ) ;
#186 = PRODUCT_DEFINITION_SHAPE ( 'NONE', 'NONE',  #16 ) ;
#187 = EDGE_LOOP ( 'NONE', ( #69 ) ) ;
#188 = DIRECTION ( 'NONE',  ( -4.097723285930316646E-31, -1.000000000000000000, -1.153406566473948655E-16 ) ) ;
#189 = FACE_OUTER_BOUND ( 'NONE', #123, .T. ) ;
#190 = APPROVAL_PERSON_ORGANIZATION ( #132, #223, #95 ) ;
#191 = DIRECTION ( 'NONE',  ( 0.0000000000000000000, 1.000000000000000000, 0.0000000000000000000 ) ) ;
#192 = MANIFOLD_SOLID_BREP ( 'Corps-Déplacer/Copier1[1]', #169 ) ;
#193 = FACE_OUTER_BOUND ( 'NONE', #88, .T. ) ;
#194 = DIRECTION ( 'NONE',  ( -3.491481338843133355E-15, 1.224646799147353207E-16, -1.000000000000000000 ) ) ;
#195 = LOCAL_TIME ( 7, 16, 9.000000000000000000, #43 ) ;
#196 = PERSON_AND_ORGANIZATION_ROLE ( 'creator' ) ;
#197 = CALENDAR_DATE ( 2021, 8, 10 ) ;
#198 = ADVANCED_FACE ( 'NONE', ( #189, #58 ), #129, .T. ) ;
#199 = CARTESIAN_POINT ( 'NONE',  ( 1.326762908760390423E-13, 0.7999999999999949374, 38.00000000000000000 ) ) ;
#200 = APPLICATION_PROTOCOL_DEFINITION ( 'international standard', 'config_control_design', 1994, #202 ) ;
#201 = PRODUCT_RELATED_PRODUCT_CATEGORY ( 'detail', '', ( #17 ) ) ;
#202 = APPLICATION_CONTEXT ( 'configuration controlled 3d designs of mechanical parts and assemblies' ) ;
#203 = ORIENTED_EDGE ( 'NONE', *, *, #30, .T. ) ;
#204 = CARTESIAN_POINT ( 'NONE',  ( 4.189777606611760026E-14, -1.469576158976823947E-15, 12.00000000000000000 ) ) ;
#205 = CARTESIAN_POINT ( 'NONE',  ( 1.972020020265640667E-15, -6.916915117962538861E-17, 0.5648089818859090006 ) ) ;
#206 = CC_DESIGN_PERSON_AND_ORGANIZATION_ASSIGNMENT ( #9, #117, ( #16 ) ) ;
#207 = DIRECTION ( 'NONE',  ( 4.275831445896958607E-31, 1.000000000000000000, 1.224646799147352961E-16 ) ) ;
#208 = CARTESIAN_POINT ( 'NONE',  ( 4.189777606611760026E-14, -1.469576158976823947E-15, 12.00000000000000000 ) ) ;
#209 = ADVANCED_FACE ( 'NONE', ( #193 ), #160, .F. ) ;
#210 = CARTESIAN_POINT ( 'NONE',  ( 4.226062145047090709E-14, -1.482303061841523097E-15, 12.10392304845413491 ) ) ;
#211 = DIRECTION ( 'NONE',  ( 3.491481338843133355E-15, -1.224646799147353207E-16, 1.000000000000000000 ) ) ;
#212 = DIRECTION ( 'NONE',  ( 1.000000000000000000, 0.0000000000000000000, 0.0000000000000000000 ) ) ;
#213 = DESIGN_CONTEXT ( 'detailed design', #202, 'design' ) ;
#214 = ADVANCED_FACE ( 'NONE', ( #137, #78 ), #127, .T. ) ;
#215 = AXIS2_PLACEMENT_3D ( 'NONE', #125, #111, #55 ) ;
#216 = ADVANCED_FACE ( 'NONE', ( #174 ), #36, .T. ) ;
#217 = DATE_TIME_ROLE ( 'classification_date' ) ;
#218 = ORIENTED_EDGE ( 'NONE', *, *, #161, .F. ) ;
#219 = ADVANCED_FACE ( 'NONE', ( #124, #35 ), #108, .T. ) ;
#220 = LOCAL_TIME ( 7, 16, 9.000000000000000000, #45 ) ;
#221 = APPROVAL_STATUS ( 'not_yet_approved' ) ;
#222 = EDGE_LOOP ( 'NONE', ( #68 ) ) ;
#223 = APPROVAL ( #183, 'UNSPECIFIED' ) ;
ENDSEC;
END-ISO-10303-21;
