ISO-10303-21;
HEADER;
FILE_DESCRIPTION (( 'STEP AP203' ),
    '1' );
FILE_NAME ('61382.step',
    '2021-10-07T13:48:29',
    ( '' ),
    ( '' ),
    'SwSTEP 2.0',
    'SolidWorks 2019',
    '' );
FILE_SCHEMA (( 'CONFIG_CONTROL_DESIGN' ));
ENDSEC;

DATA;
#1 = EDGE_LOOP ( 'NONE', ( #198 ) ) ;
#2 = PRODUCT_DEFINITION_FORMATION_WITH_SPECIFIED_SOURCE ( 'ANY', '', #35, .NOT_KNOWN. ) ;
#3 = CC_DESIGN_DATE_AND_TIME_ASSIGNMENT ( #68, #195, ( #70 ) ) ;
#4 = AXIS2_PLACEMENT_3D ( 'NONE', #34, #87, #157 ) ;
#5 = EDGE_LOOP ( 'NONE', ( #94 ) ) ;
#6 = DIRECTION ( 'NONE',  ( 0.0000000000000000000, 1.000000000000000000, 0.0000000000000000000 ) ) ;
#7 = CARTESIAN_POINT ( 'NONE',  ( 4.189777606611760026E-14, 7.048870978510672734E-33, 12.00000000000000000 ) ) ;
#8 = ADVANCED_FACE ( 'NONE', ( #194 ), #57, .T. ) ;
#9 = CIRCLE ( 'NONE', #37, 0.9999999999999963363 ) ;
#10 = LOCAL_TIME ( 15, 48, 29.00000000000000000, #69 ) ;
#11 = DIRECTION ( 'NONE',  ( -3.491481338843133355E-15, 1.224646799147353207E-16, -1.000000000000000000 ) ) ;
#12 = FACE_OUTER_BOUND ( 'NONE', #14, .T. ) ;
#13 = CARTESIAN_POINT ( 'NONE',  ( 4.189777606611760026E-14, 0.9399999999999938405, 12.00000000000000000 ) ) ;
#14 = EDGE_LOOP ( 'NONE', ( #126 ) ) ;
#15 = PERSON_AND_ORGANIZATION_ROLE ( 'creator' ) ;
#16 = CIRCLE ( 'NONE', #182, 0.9399999999999952838 ) ;
#17 = APPROVAL_DATE_TIME ( #108, #110 ) ;
#18 = APPLICATION_CONTEXT ( 'configuration controlled 3d designs of mechanical parts and assemblies' ) ;
#19 = PERSON_AND_ORGANIZATION ( #145, #158 ) ;
#20 = ORIENTED_EDGE ( 'NONE', *, *, #168, .T. ) ;
#21 = MECHANICAL_CONTEXT ( 'NONE', #56, 'mechanical' ) ;
#22 = ADVANCED_FACE ( 'NONE', ( #12, #153 ), #65, .T. ) ;
#23 = PERSON_AND_ORGANIZATION ( #145, #158 ) ;
#24 = CC_DESIGN_APPROVAL ( #42, ( #138 ) ) ;
#25 = CARTESIAN_POINT ( 'NONE',  ( 1.972020020265641062E-15, 0.9399999999999936184, 0.5648089818859091116 ) ) ;
#26 = AXIS2_PLACEMENT_3D ( 'NONE', #88, #107, #179 ) ;
#27 = APPROVAL_PERSON_ORGANIZATION ( #175, #110, #162 ) ;
#28 = CARTESIAN_POINT ( 'NONE',  ( 1.319779946082704535E-13, -4.629164900776995227E-15, 37.79999999999999716 ) ) ;
#29 = DIRECTION ( 'NONE',  ( 4.275831445896958607E-31, 1.000000000000000000, 1.224646799147353207E-16 ) ) ;
#30 = AXIS2_PLACEMENT_3D ( 'NONE', #41, #132, #111 ) ;
#31 = CYLINDRICAL_SURFACE ( 'NONE', #53, 0.9399999999999943956 ) ;
#32 = PERSON_AND_ORGANIZATION_ROLE ( 'design_supplier' ) ;
#33 = FACE_BOUND ( 'NONE', #1, .T. ) ;
#34 = CARTESIAN_POINT ( 'NONE',  ( 0.0000000000000000000, 0.0000000000000000000, 0.0000000000000000000 ) ) ;
#35 = PRODUCT ( '61382', '61382', '', ( #21 ) ) ;
#36 = CLOSED_SHELL ( 'NONE', ( #218, #130, #22, #78, #187 ) ) ;
#37 = AXIS2_PLACEMENT_3D ( 'NONE', #64, #169, #202 ) ;
#38 = LOCAL_TIME ( 15, 48, 29.00000000000000000, #141 ) ;
#39 = CARTESIAN_POINT ( 'NONE',  ( 4.189777606611760026E-14, -1.469576158976823947E-15, 12.00000000000000000 ) ) ;
#40 = AXIS2_PLACEMENT_3D ( 'NONE', #43, #203, #214 ) ;
#41 = CARTESIAN_POINT ( 'NONE',  ( 4.226062145047090709E-14, -1.482303061841523097E-15, 12.10392304845413491 ) ) ;
#42 = APPROVAL ( #72, 'UNSPECIFIED' ) ;
#43 = CARTESIAN_POINT ( 'NONE',  ( 1.972020020265640667E-15, -6.916915117962538861E-17, 0.5648089818859090006 ) ) ;
#44 = CARTESIAN_POINT ( 'NONE',  ( 4.226062145047090709E-14, 0.9999999999999947820, 12.10392304845413491 ) ) ;
#45 = PRODUCT_DEFINITION_SHAPE ( 'NONE', 'NONE',  #70 ) ;
#46 = CC_DESIGN_PERSON_AND_ORGANIZATION_ASSIGNMENT ( #140, #15, ( #70 ) ) ;
#47 = EDGE_LOOP ( 'NONE', ( #220 ) ) ;
#48 = CALENDAR_DATE ( 2021, 7, 10 ) ;
#49 = CALENDAR_DATE ( 2021, 7, 10 ) ;
#50 = DIRECTION ( 'NONE',  ( 3.491481338843133355E-15, -1.224646799147353207E-16, 1.000000000000000000 ) ) ;
#51 = DATE_AND_TIME ( #178, #119 ) ;
#52 = APPLICATION_PROTOCOL_DEFINITION ( 'international standard', 'config_control_design', 1994, #56 ) ;
#53 = AXIS2_PLACEMENT_3D ( 'NONE', #186, #11, #213 ) ;
#54 = CC_DESIGN_APPROVAL ( #129, ( #2 ) ) ;
#55 = EDGE_LOOP ( 'NONE', ( #183 ) ) ;
#56 = APPLICATION_CONTEXT ( 'configuration controlled 3d designs of mechanical parts and assemblies' ) ;
#57 = PLANE ( 'NONE',  #221 ) ;
#58 = PRODUCT_RELATED_PRODUCT_CATEGORY ( 'detail', '', ( #35 ) ) ;
#59 =( NAMED_UNIT ( * ) PLANE_ANGLE_UNIT ( ) SI_UNIT ( $, .RADIAN. ) );
#60 = CC_DESIGN_PERSON_AND_ORGANIZATION_ASSIGNMENT ( #196, #160, ( #35 ) ) ;
#61 = PLANE ( 'NONE',  #112 ) ;
#62 = CLOSED_SHELL ( 'NONE', ( #96, #211, #8 ) ) ;
#63 = VERTEX_POINT ( 'NONE', #135 ) ;
#64 = CARTESIAN_POINT ( 'NONE',  ( 4.226062145047090709E-14, -1.482303061841523097E-15, 12.10392304845413491 ) ) ;
#65 = CYLINDRICAL_SURFACE ( 'NONE', #26, 0.9999999999999978906 ) ;
#66 = ORIENTED_EDGE ( 'NONE', *, *, #168, .F. ) ;
#67 = CIRCLE ( 'NONE', #40, 0.9399999999999937295 ) ;
#68 = DATE_AND_TIME ( #49, #201 ) ;
#69 = COORDINATED_UNIVERSAL_TIME_OFFSET ( 1, 0, .AHEAD. ) ;
#70 = PRODUCT_DEFINITION ( 'UNKNOWN', '', #2, #171 ) ;
#71 = PERSON_AND_ORGANIZATION_ROLE ( 'classification_officer' ) ;
#72 = APPROVAL_STATUS ( 'not_yet_approved' ) ;
#73 = CARTESIAN_POINT ( 'NONE',  ( 4.189777606611760026E-14, 7.048870978510672734E-33, 12.00000000000000000 ) ) ;
#74 = PERSON_AND_ORGANIZATION_ROLE ( 'creator' ) ;
#75 = CIRCLE ( 'NONE', #131, 0.9999999999999993339 ) ;
#76 = CIRCLE ( 'NONE', #207, 0.9399999999999952838 ) ;
#77 = VERTEX_POINT ( 'NONE', #25 ) ;
#78 = ADVANCED_FACE ( 'NONE', ( #120, #33 ), #166, .T. ) ;
#79 = CARTESIAN_POINT ( 'NONE',  ( 1.972020020265640667E-15, -6.916915117962538861E-17, 0.5648089818859090006 ) ) ;
#80 = DIRECTION ( 'NONE',  ( 3.491481338843133355E-15, -1.224646799147353207E-16, 1.000000000000000000 ) ) ;
#81 = CC_DESIGN_SECURITY_CLASSIFICATION ( #138, ( #2 ) ) ;
#82 = DIRECTION ( 'NONE',  ( -3.491481338843133355E-15, 1.224646799147353207E-16, -1.000000000000000000 ) ) ;
#83 = EDGE_CURVE ( 'NONE', #77, #77, #67, .T. ) ;
#84 = VERTEX_POINT ( 'NONE', #155 ) ;
#85 = EDGE_LOOP ( 'NONE', ( #165 ) ) ;
#86 = APPROVAL_DATE_TIME ( #51, #129 ) ;
#87 = DIRECTION ( 'NONE',  ( 0.0000000000000000000, 0.0000000000000000000, 1.000000000000000000 ) ) ;
#88 = CARTESIAN_POINT ( 'NONE',  ( 0.0000000000000000000, 0.0000000000000000000, 0.0000000000000000000 ) ) ;
#89 = ADVANCED_BREP_SHAPE_REPRESENTATION ( '61382', ( #149, #219, #4 ), #117 ) ;
#90 = PERSON_AND_ORGANIZATION ( #145, #158 ) ;
#91 = CONICAL_SURFACE ( 'NONE', #30, 0.9999999999999963363, 0.5235987755982949299 ) ;
#92 = APPROVAL_DATE_TIME ( #206, #42 ) ;
#93 = ORIENTED_EDGE ( 'NONE', *, *, #83, .T. ) ;
#94 = ORIENTED_EDGE ( 'NONE', *, *, #83, .F. ) ;
#95 = VERTEX_POINT ( 'NONE', #44 ) ;
#96 = ADVANCED_FACE ( 'NONE', ( #189 ), #199, .T. ) ;
#97 = DIRECTION ( 'NONE',  ( -3.491481338843133355E-15, 1.224646799147353207E-16, -1.000000000000000000 ) ) ;
#98 = DIRECTION ( 'NONE',  ( -3.491481338843133355E-15, 1.224646799147353207E-16, -1.000000000000000000 ) ) ;
#99 = EDGE_CURVE ( 'NONE', #63, #63, #76, .T. ) ;
#100 = DIRECTION ( 'NONE',  ( 0.0000000000000000000, 1.000000000000000000, 0.0000000000000000000 ) ) ;
#101 = AXIS2_PLACEMENT_3D ( 'NONE', #104, #118, #176 ) ;
#102 = VERTEX_POINT ( 'NONE', #13 ) ;
#103 = SECURITY_CLASSIFICATION_LEVEL ( 'unclassified' ) ;
#104 = CARTESIAN_POINT ( 'NONE',  ( 1.326762908760390423E-13, -4.653657836759941941E-15, 38.00000000000000000 ) ) ;
#105 = ORIENTED_EDGE ( 'NONE', *, *, #99, .F. ) ;
#106 = APPLICATION_PROTOCOL_DEFINITION ( 'international standard', 'config_control_design', 1994, #18 ) ;
#107 = DIRECTION ( 'NONE',  ( -3.491481338843133355E-15, 1.224646799147353207E-16, -1.000000000000000000 ) ) ;
#108 = DATE_AND_TIME ( #161, #10 ) ;
#109 = CC_DESIGN_PERSON_AND_ORGANIZATION_ASSIGNMENT ( #19, #32, ( #2 ) ) ;
#110 = APPROVAL ( #159, 'UNSPECIFIED' ) ;
#111 = DIRECTION ( 'NONE',  ( 0.0000000000000000000, -1.000000000000000000, 0.0000000000000000000 ) ) ;
#112 = AXIS2_PLACEMENT_3D ( 'NONE', #7, #80, #151 ) ;
#113 = CARTESIAN_POINT ( 'NONE',  ( 1.326762908760390423E-13, 5.999039130647358587E-33, 38.00000000000000000 ) ) ;
#114 = DIRECTION ( 'NONE',  ( 0.0000000000000000000, 1.000000000000000000, 0.0000000000000000000 ) ) ;
#115 = DIRECTION ( 'NONE',  ( -3.491481338843133355E-15, 1.224646799147353207E-16, -1.000000000000000000 ) ) ;
#116 = CARTESIAN_POINT ( 'NONE',  ( 4.189777606611760026E-14, -1.469576158976823947E-15, 12.00000000000000000 ) ) ;
#117 =( GEOMETRIC_REPRESENTATION_CONTEXT ( 3 ) GLOBAL_UNCERTAINTY_ASSIGNED_CONTEXT ( ( #122 ) ) GLOBAL_UNIT_ASSIGNED_CONTEXT ( ( #137, #59, #181 ) ) REPRESENTATION_CONTEXT ( 'NONE', 'WORKASPACE' ) );
#118 = DIRECTION ( 'NONE',  ( -3.491481338843133355E-15, 1.224646799147353207E-16, -1.000000000000000000 ) ) ;
#119 = LOCAL_TIME ( 15, 48, 29.00000000000000000, #209 ) ;
#120 = FACE_OUTER_BOUND ( 'NONE', #185, .T. ) ;
#121 = EDGE_CURVE ( 'NONE', #95, #95, #9, .T. ) ;
#122 = UNCERTAINTY_MEASURE_WITH_UNIT (LENGTH_MEASURE( 1.000000000000000082E-05 ), #137, 'distance_accuracy_value', 'NONE');
#123 = APPROVAL_STATUS ( 'not_yet_approved' ) ;
#124 = DIRECTION ( 'NONE',  ( -4.275831445896958607E-31, -1.000000000000000000, -1.224646799147353207E-16 ) ) ;
#125 = PERSON_AND_ORGANIZATION ( #145, #158 ) ;
#126 = ORIENTED_EDGE ( 'NONE', *, *, #121, .F. ) ;
#127 = CALENDAR_DATE ( 2021, 7, 10 ) ;
#128 = AXIS2_PLACEMENT_3D ( 'NONE', #113, #97, #29 ) ;
#129 = APPROVAL ( #123, 'UNSPECIFIED' ) ;
#130 = ADVANCED_FACE ( 'NONE', ( #167, #134 ), #91, .T. ) ;
#131 = AXIS2_PLACEMENT_3D ( 'NONE', #28, #204, #114 ) ;
#132 = DIRECTION ( 'NONE',  ( 3.491481338843133355E-15, -1.224646799147353207E-16, 1.000000000000000000 ) ) ;
#133 = DIRECTION ( 'NONE',  ( -4.097723285930316646E-31, -1.000000000000000000, -1.153406566473948655E-16 ) ) ;
#134 = FACE_OUTER_BOUND ( 'NONE', #85, .T. ) ;
#135 = CARTESIAN_POINT ( 'NONE',  ( 4.189777606611760026E-14, 0.9399999999999938405, 12.00000000000000000 ) ) ;
#136 = CIRCLE ( 'NONE', #216, 0.7999999999999996003 ) ;
#137 =( LENGTH_UNIT ( ) NAMED_UNIT ( * ) SI_UNIT ( .MILLI., .METRE. ) );
#138 = SECURITY_CLASSIFICATION ( '', '', #103 ) ;
#139 = DATE_TIME_ROLE ( 'classification_date' ) ;
#140 = PERSON_AND_ORGANIZATION ( #145, #158 ) ;
#141 = COORDINATED_UNIVERSAL_TIME_OFFSET ( 1, 0, .AHEAD. ) ;
#142 = SHAPE_DEFINITION_REPRESENTATION ( #45, #89 ) ;
#143 = EDGE_LOOP ( 'NONE', ( #20 ) ) ;
#144 = CC_DESIGN_APPROVAL ( #110, ( #70 ) ) ;
#145 = PERSON ( 'UNSPECIFIED', 'UNSPECIFIED', 'UNSPECIFIED', ('UNSPECIFIED'), ('UNSPECIFIED'), ('UNSPECIFIED') ) ;
#146 = VERTEX_POINT ( 'NONE', #215 ) ;
#147 = CC_DESIGN_PERSON_AND_ORGANIZATION_ASSIGNMENT ( #125, #74, ( #2 ) ) ;
#148 = FACE_OUTER_BOUND ( 'NONE', #217, .T. ) ;
#149 = MANIFOLD_SOLID_BREP ( 'Corps-Déplacer/Copier1[1]', #36 ) ;
#150 = APPROVAL_PERSON_ORGANIZATION ( #23, #129, #223 ) ;
#151 = DIRECTION ( 'NONE',  ( -4.275831445896958607E-31, -1.000000000000000000, -1.224646799147353207E-16 ) ) ;
#152 = FACE_OUTER_BOUND ( 'NONE', #5, .T. ) ;
#153 = FACE_OUTER_BOUND ( 'NONE', #143, .T. ) ;
#154 = EDGE_LOOP ( 'NONE', ( #192 ) ) ;
#155 = CARTESIAN_POINT ( 'NONE',  ( 1.319779946082704535E-13, 0.9999999999999947820, 37.79999999999999716 ) ) ;
#156 = CC_DESIGN_DATE_AND_TIME_ASSIGNMENT ( #180, #139, ( #138 ) ) ;
#157 = DIRECTION ( 'NONE',  ( 1.000000000000000000, 0.0000000000000000000, 0.0000000000000000000 ) ) ;
#158 = ORGANIZATION ( 'UNSPECIFIED', 'UNSPECIFIED', '' ) ;
#159 = APPROVAL_STATUS ( 'not_yet_approved' ) ;
#160 = PERSON_AND_ORGANIZATION_ROLE ( 'design_owner' ) ;
#161 = CALENDAR_DATE ( 2021, 7, 10 ) ;
#162 = APPROVAL_ROLE ( '' ) ;
#163 = EDGE_LOOP ( 'NONE', ( #105 ) ) ;
#164 = EDGE_CURVE ( 'NONE', #102, #102, #16, .T. ) ;
#165 = ORIENTED_EDGE ( 'NONE', *, *, #121, .T. ) ;
#166 = CONICAL_SURFACE ( 'NONE', #101, 0.7999999999999996003, 0.7853981633974507215 ) ;
#167 = FACE_BOUND ( 'NONE', #55, .T. ) ;
#168 = EDGE_CURVE ( 'NONE', #84, #84, #75, .T. ) ;
#169 = DIRECTION ( 'NONE',  ( -3.491481338843133355E-15, 1.224646799147353207E-16, -1.000000000000000000 ) ) ;
#170 = FACE_OUTER_BOUND ( 'NONE', #47, .T. ) ;
#171 = DESIGN_CONTEXT ( 'detailed design', #18, 'design' ) ;
#172 = PLANE ( 'NONE',  #128 ) ;
#173 = DIRECTION ( 'NONE',  ( 3.491481338843133355E-15, -1.224646799147353207E-16, 1.000000000000000000 ) ) ;
#174 = CC_DESIGN_PERSON_AND_ORGANIZATION_ASSIGNMENT ( #90, #71, ( #138 ) ) ;
#175 = PERSON_AND_ORGANIZATION ( #145, #158 ) ;
#176 = DIRECTION ( 'NONE',  ( 0.0000000000000000000, 1.000000000000000000, 0.0000000000000000000 ) ) ;
#177 = EDGE_CURVE ( 'NONE', #146, #146, #136, .T. ) ;
#178 = CALENDAR_DATE ( 2021, 7, 10 ) ;
#179 = DIRECTION ( 'NONE',  ( 4.275831445896958607E-31, 1.000000000000000000, 1.224646799147352961E-16 ) ) ;
#180 = DATE_AND_TIME ( #48, #190 ) ;
#181 =( NAMED_UNIT ( * ) SI_UNIT ( $, .STERADIAN. ) SOLID_ANGLE_UNIT ( ) );
#182 = AXIS2_PLACEMENT_3D ( 'NONE', #116, #82, #191 ) ;
#183 = ORIENTED_EDGE ( 'NONE', *, *, #164, .F. ) ;
#184 = APPROVAL_PERSON_ORGANIZATION ( #222, #42, #193 ) ;
#185 = EDGE_LOOP ( 'NONE', ( #66 ) ) ;
#186 = CARTESIAN_POINT ( 'NONE',  ( 0.0000000000000000000, 0.0000000000000000000, 0.0000000000000000000 ) ) ;
#187 = ADVANCED_FACE ( 'NONE', ( #148 ), #172, .F. ) ;
#188 = CARTESIAN_POINT ( 'NONE',  ( 1.326762908760390423E-13, -4.653657836759941941E-15, 38.00000000000000000 ) ) ;
#189 = FACE_OUTER_BOUND ( 'NONE', #205, .T. ) ;
#190 = LOCAL_TIME ( 15, 48, 29.00000000000000000, #197 ) ;
#191 = DIRECTION ( 'NONE',  ( 0.0000000000000000000, 1.000000000000000000, 0.0000000000000000000 ) ) ;
#192 = ORIENTED_EDGE ( 'NONE', *, *, #164, .T. ) ;
#193 = APPROVAL_ROLE ( '' ) ;
#194 = FACE_OUTER_BOUND ( 'NONE', #163, .T. ) ;
#195 = DATE_TIME_ROLE ( 'creation_date' ) ;
#196 = PERSON_AND_ORGANIZATION ( #145, #158 ) ;
#197 = COORDINATED_UNIVERSAL_TIME_OFFSET ( 1, 0, .AHEAD. ) ;
#198 = ORIENTED_EDGE ( 'NONE', *, *, #177, .T. ) ;
#199 = CONICAL_SURFACE ( 'NONE', #210, 0.9399999999999937295, 1.029744258676649649 ) ;
#200 = ORIENTED_EDGE ( 'NONE', *, *, #177, .F. ) ;
#201 = LOCAL_TIME ( 15, 48, 29.00000000000000000, #208 ) ;
#202 = DIRECTION ( 'NONE',  ( 0.0000000000000000000, 1.000000000000000000, 0.0000000000000000000 ) ) ;
#203 = DIRECTION ( 'NONE',  ( -3.491481338843133355E-15, 1.224646799147353207E-16, -1.000000000000000000 ) ) ;
#204 = DIRECTION ( 'NONE',  ( -3.491481338843133355E-15, 1.224646799147353207E-16, -1.000000000000000000 ) ) ;
#205 = EDGE_LOOP ( 'NONE', ( #93 ) ) ;
#206 = DATE_AND_TIME ( #127, #38 ) ;
#207 = AXIS2_PLACEMENT_3D ( 'NONE', #39, #115, #6 ) ;
#208 = COORDINATED_UNIVERSAL_TIME_OFFSET ( 1, 0, .AHEAD. ) ;
#209 = COORDINATED_UNIVERSAL_TIME_OFFSET ( 1, 0, .AHEAD. ) ;
#210 = AXIS2_PLACEMENT_3D ( 'NONE', #79, #173, #133 ) ;
#211 = ADVANCED_FACE ( 'NONE', ( #152, #170 ), #31, .T. ) ;
#212 = FACE_OUTER_BOUND ( 'NONE', #154, .T. ) ;
#213 = DIRECTION ( 'NONE',  ( 4.275831445896958607E-31, 1.000000000000000000, 1.224646799147352961E-16 ) ) ;
#214 = DIRECTION ( 'NONE',  ( 4.097723285930316646E-31, 1.000000000000000000, 1.153406566473948655E-16 ) ) ;
#215 = CARTESIAN_POINT ( 'NONE',  ( 1.326762908760390423E-13, 0.7999999999999949374, 38.00000000000000000 ) ) ;
#216 = AXIS2_PLACEMENT_3D ( 'NONE', #188, #98, #100 ) ;
#217 = EDGE_LOOP ( 'NONE', ( #200 ) ) ;
#218 = ADVANCED_FACE ( 'NONE', ( #212 ), #61, .F. ) ;
#219 = MANIFOLD_SOLID_BREP ( 'Corps-Déplacer/Copier1[2]', #62 ) ;
#220 = ORIENTED_EDGE ( 'NONE', *, *, #99, .T. ) ;
#221 = AXIS2_PLACEMENT_3D ( 'NONE', #73, #50, #124 ) ;
#222 = PERSON_AND_ORGANIZATION ( #145, #158 ) ;
#223 = APPROVAL_ROLE ( '' ) ;
ENDSEC;
END-ISO-10303-21;
