ISO-10303-21;
HEADER;
FILE_DESCRIPTION (( 'STEP AP203' ),
    '1' );
FILE_NAME ('61381.step',
    '2021-10-08T05:16:08',
    ( '' ),
    ( '' ),
    'SwSTEP 2.0',
    'SolidWorks 2019',
    '' );
FILE_SCHEMA (( 'CONFIG_CONTROL_DESIGN' ));
ENDSEC;

DATA;
#1 = CARTESIAN_POINT ( 'NONE',  ( 0.0000000000000000000, 0.0000000000000000000, 0.0000000000000000000 ) ) ;
#2 = PRODUCT_DEFINITION_FORMATION_WITH_SPECIFIED_SOURCE ( 'ANY', '', #149, .NOT_KNOWN. ) ;
#3 = PERSON_AND_ORGANIZATION ( #219, #159 ) ;
#4 = AXIS2_PLACEMENT_3D ( 'NONE', #100, #105, #37 ) ;
#5 = AXIS2_PLACEMENT_3D ( 'NONE', #48, #36, #193 ) ;
#6 = VERTEX_POINT ( 'NONE', #174 ) ;
#7 = FACE_OUTER_BOUND ( 'NONE', #106, .T. ) ;
#8 = ORIENTED_EDGE ( 'NONE', *, *, #9, .T. ) ;
#9 = EDGE_CURVE ( 'NONE', #108, #108, #76, .T. ) ;
#10 = ADVANCED_FACE ( 'NONE', ( #121, #163 ), #75, .T. ) ;
#11 = DIRECTION ( 'NONE',  ( -3.491481338843133355E-15, 1.224646799147353207E-16, -1.000000000000000000 ) ) ;
#12 = LOCAL_TIME ( 7, 16, 8.000000000000000000, #78 ) ;
#13 =( NAMED_UNIT ( * ) SI_UNIT ( $, .STERADIAN. ) SOLID_ANGLE_UNIT ( ) );
#14 = CC_DESIGN_PERSON_AND_ORGANIZATION_ASSIGNMENT ( #192, #113, ( #99 ) ) ;
#15 = EDGE_LOOP ( 'NONE', ( #102 ) ) ;
#16 = CC_DESIGN_APPROVAL ( #204, ( #2 ) ) ;
#17 = MECHANICAL_CONTEXT ( 'NONE', #45, 'mechanical' ) ;
#18 = EDGE_LOOP ( 'NONE', ( #29 ) ) ;
#19 = CALENDAR_DATE ( 2021, 8, 10 ) ;
#20 = CLOSED_SHELL ( 'NONE', ( #95, #153, #145, #199, #185 ) ) ;
#21 = COORDINATED_UNIVERSAL_TIME_OFFSET ( 1, 0, .AHEAD. ) ;
#22 = COORDINATED_UNIVERSAL_TIME_OFFSET ( 1, 0, .AHEAD. ) ;
#23 = PLANE ( 'NONE',  #74 ) ;
#24 = DESIGN_CONTEXT ( 'detailed design', #152, 'design' ) ;
#25 = ADVANCED_FACE ( 'NONE', ( #207 ), #143, .T. ) ;
#26 = PRODUCT_DEFINITION ( 'UNKNOWN', '', #2, #24 ) ;
#27 = DIRECTION ( 'NONE',  ( 0.0000000000000000000, 1.000000000000000000, 0.0000000000000000000 ) ) ;
#28 = APPROVAL_PERSON_ORGANIZATION ( #31, #129, #33 ) ;
#29 = ORIENTED_EDGE ( 'NONE', *, *, #180, .F. ) ;
#30 = DATE_TIME_ROLE ( 'classification_date' ) ;
#31 = PERSON_AND_ORGANIZATION ( #219, #159 ) ;
#32 = PRODUCT_DEFINITION_SHAPE ( 'NONE', 'NONE',  #26 ) ;
#33 = APPROVAL_ROLE ( '' ) ;
#34 = SHAPE_DEFINITION_REPRESENTATION ( #32, #190 ) ;
#35 = LOCAL_TIME ( 7, 16, 8.000000000000000000, #55 ) ;
#36 = DIRECTION ( 'NONE',  ( -3.491481338843133355E-15, 1.224646799147353207E-16, -1.000000000000000000 ) ) ;
#37 = DIRECTION ( 'NONE',  ( -3.757912086609264827E-31, -1.000000000000000000, -1.057758217059035510E-16 ) ) ;
#38 = VERTEX_POINT ( 'NONE', #210 ) ;
#39 = CC_DESIGN_DATE_AND_TIME_ASSIGNMENT ( #194, #30, ( #99 ) ) ;
#40 = DIRECTION ( 'NONE',  ( 4.275831445896958607E-31, 1.000000000000000000, 1.224646799147353207E-16 ) ) ;
#41 = CARTESIAN_POINT ( 'NONE',  ( 4.325844625744248352E-14, -1.517302044719445810E-15, 12.38971143170300593 ) ) ;
#42 = CC_DESIGN_APPROVAL ( #129, ( #99 ) ) ;
#43 = ORIENTED_EDGE ( 'NONE', *, *, #180, .T. ) ;
#44 = CARTESIAN_POINT ( 'NONE',  ( 1.501336975702547217E-13, -5.265981236333618470E-15, 43.00000000000000000 ) ) ;
#45 = APPLICATION_CONTEXT ( 'configuration controlled 3d designs of mechanical parts and assemblies' ) ;
#46 = FACE_OUTER_BOUND ( 'NONE', #211, .T. ) ;
#47 = CC_DESIGN_PERSON_AND_ORGANIZATION_ASSIGNMENT ( #3, #170, ( #149 ) ) ;
#48 = CARTESIAN_POINT ( 'NONE',  ( 1.501336975702547217E-13, -5.265981236333618470E-15, 43.00000000000000000 ) ) ;
#49 = EDGE_LOOP ( 'NONE', ( #189 ) ) ;
#50 = APPLICATION_PROTOCOL_DEFINITION ( 'international standard', 'config_control_design', 1994, #152 ) ;
#51 = PERSON_AND_ORGANIZATION_ROLE ( 'creator' ) ;
#52 = AXIS2_PLACEMENT_3D ( 'NONE', #127, #130, #205 ) ;
#53 = APPROVAL_STATUS ( 'not_yet_approved' ) ;
#54 =( LENGTH_UNIT ( ) NAMED_UNIT ( * ) SI_UNIT ( .MILLI., .METRE. ) );
#55 = COORDINATED_UNIVERSAL_TIME_OFFSET ( 1, 0, .AHEAD. ) ;
#56 = PLANE ( 'NONE',  #52 ) ;
#57 = AXIS2_PLACEMENT_3D ( 'NONE', #150, #171, #117 ) ;
#58 = ORIENTED_EDGE ( 'NONE', *, *, #133, .T. ) ;
#59 = FACE_OUTER_BOUND ( 'NONE', #132, .T. ) ;
#60 = CC_DESIGN_DATE_AND_TIME_ASSIGNMENT ( #208, #69, ( #26 ) ) ;
#61 = AXIS2_PLACEMENT_3D ( 'NONE', #1, #191, #134 ) ;
#62 = DIRECTION ( 'NONE',  ( 4.275831445896958607E-31, 1.000000000000000000, 1.224646799147353207E-16 ) ) ;
#63 = ORIENTED_EDGE ( 'NONE', *, *, #80, .F. ) ;
#64 = DIRECTION ( 'NONE',  ( 0.0000000000000000000, 1.000000000000000000, 0.0000000000000000000 ) ) ;
#65 = LOCAL_TIME ( 7, 16, 8.000000000000000000, #21 ) ;
#66 = DIRECTION ( 'NONE',  ( 0.0000000000000000000, 0.0000000000000000000, 1.000000000000000000 ) ) ;
#67 = APPLICATION_PROTOCOL_DEFINITION ( 'international standard', 'config_control_design', 1994, #45 ) ;
#68 = AXIS2_PLACEMENT_3D ( 'NONE', #124, #79, #89 ) ;
#69 = DATE_TIME_ROLE ( 'creation_date' ) ;
#70 = PERSON_AND_ORGANIZATION ( #219, #159 ) ;
#71 = ORIENTED_EDGE ( 'NONE', *, *, #80, .T. ) ;
#72 = CARTESIAN_POINT ( 'NONE',  ( 2.150340979544981847E-15, -7.542380846714475727E-17, 0.6158821345032522432 ) ) ;
#73 = CARTESIAN_POINT ( 'NONE',  ( 4.189777606611760026E-14, -1.469576158976823947E-15, 12.00000000000000000 ) ) ;
#74 = AXIS2_PLACEMENT_3D ( 'NONE', #90, #203, #62 ) ;
#75 = CYLINDRICAL_SURFACE ( 'NONE', #154, 1.024999999999994360 ) ;
#76 = CIRCLE ( 'NONE', #135, 1.024999999999993472 ) ;
#77 = LOCAL_TIME ( 7, 16, 8.000000000000000000, #141 ) ;
#78 = COORDINATED_UNIVERSAL_TIME_OFFSET ( 1, 0, .AHEAD. ) ;
#79 = DIRECTION ( 'NONE',  ( -3.491481338843133355E-15, 1.224646799147353207E-16, -1.000000000000000000 ) ) ;
#80 = EDGE_CURVE ( 'NONE', #217, #217, #216, .T. ) ;
#81 = DIRECTION ( 'NONE',  ( 0.0000000000000000000, -1.000000000000000000, 0.0000000000000000000 ) ) ;
#82 = CALENDAR_DATE ( 2021, 8, 10 ) ;
#83 = DIRECTION ( 'NONE',  ( -3.491481338843133355E-15, 1.224646799147353207E-16, -1.000000000000000000 ) ) ;
#84 = VERTEX_POINT ( 'NONE', #221 ) ;
#85 = VERTEX_POINT ( 'NONE', #197 ) ;
#86 = APPROVAL_ROLE ( '' ) ;
#87 = PERSON_AND_ORGANIZATION ( #219, #159 ) ;
#88 = PERSON_AND_ORGANIZATION_ROLE ( 'design_supplier' ) ;
#89 = DIRECTION ( 'NONE',  ( 0.0000000000000000000, 1.000000000000000000, 0.0000000000000000000 ) ) ;
#90 = CARTESIAN_POINT ( 'NONE',  ( 1.501336975702547217E-13, 7.123858967643751109E-33, 43.00000000000000000 ) ) ;
#91 = CC_DESIGN_PERSON_AND_ORGANIZATION_ASSIGNMENT ( #70, #212, ( #26 ) ) ;
#92 = CONICAL_SURFACE ( 'NONE', #147, 1.249999999999996447, 0.5235987755982914882 ) ;
#93 = EDGE_CURVE ( 'NONE', #6, #6, #222, .T. ) ;
#94 =( GEOMETRIC_REPRESENTATION_CONTEXT ( 3 ) GLOBAL_UNCERTAINTY_ASSIGNED_CONTEXT ( ( #201 ) ) GLOBAL_UNIT_ASSIGNED_CONTEXT ( ( #54, #172, #13 ) ) REPRESENTATION_CONTEXT ( 'NONE', 'WORKASPACE' ) );
#95 = ADVANCED_FACE ( 'NONE', ( #7 ), #125, .F. ) ;
#96 = CALENDAR_DATE ( 2021, 8, 10 ) ;
#97 = PERSON_AND_ORGANIZATION ( #219, #159 ) ;
#98 = FACE_OUTER_BOUND ( 'NONE', #148, .T. ) ;
#99 = SECURITY_CLASSIFICATION ( '', '', #176 ) ;
#100 = CARTESIAN_POINT ( 'NONE',  ( 2.150340979544981847E-15, -7.542380846714475727E-17, 0.6158821345032522432 ) ) ;
#101 = EDGE_LOOP ( 'NONE', ( #8 ) ) ;
#102 = ORIENTED_EDGE ( 'NONE', *, *, #220, .F. ) ;
#103 = DIRECTION ( 'NONE',  ( 0.0000000000000000000, 1.000000000000000000, 0.0000000000000000000 ) ) ;
#104 = APPROVAL_PERSON_ORGANIZATION ( #87, #218, #139 ) ;
#105 = DIRECTION ( 'NONE',  ( 3.491481338843133355E-15, -1.224646799147353207E-16, 1.000000000000000000 ) ) ;
#106 = EDGE_LOOP ( 'NONE', ( #71 ) ) ;
#107 = ADVANCED_FACE ( 'NONE', ( #122 ), #56, .T. ) ;
#108 = VERTEX_POINT ( 'NONE', #151 ) ;
#109 = FACE_OUTER_BOUND ( 'NONE', #18, .T. ) ;
#110 = CYLINDRICAL_SURFACE ( 'NONE', #61, 1.249999999999998446 ) ;
#111 = MANIFOLD_SOLID_BREP ( 'Corps-Déplacer/Copier1[1]', #20 ) ;
#112 = DATE_AND_TIME ( #19, #12 ) ;
#113 = PERSON_AND_ORGANIZATION_ROLE ( 'classification_officer' ) ;
#114 = AXIS2_PLACEMENT_3D ( 'NONE', #44, #144, #64 ) ;
#115 = CARTESIAN_POINT ( 'NONE',  ( 4.189777606611760026E-14, -1.469576158976823947E-15, 12.00000000000000000 ) ) ;
#116 = PERSON_AND_ORGANIZATION ( #219, #159 ) ;
#117 = DIRECTION ( 'NONE',  ( -4.275831445896958607E-31, -1.000000000000000000, -1.224646799147353207E-16 ) ) ;
#118 = APPROVAL_STATUS ( 'not_yet_approved' ) ;
#119 = EDGE_LOOP ( 'NONE', ( #58 ) ) ;
#120 = APPROVAL_PERSON_ORGANIZATION ( #97, #204, #86 ) ;
#121 = FACE_OUTER_BOUND ( 'NONE', #146, .T. ) ;
#122 = FACE_OUTER_BOUND ( 'NONE', #15, .T. ) ;
#123 = DIRECTION ( 'NONE',  ( 0.0000000000000000000, 1.000000000000000000, 0.0000000000000000000 ) ) ;
#124 = CARTESIAN_POINT ( 'NONE',  ( 1.490862531686017501E-13, -5.229241832359196822E-15, 42.69999999999998863 ) ) ;
#125 = PLANE ( 'NONE',  #57 ) ;
#126 = CLOSED_SHELL ( 'NONE', ( #25, #10, #107 ) ) ;
#127 = CARTESIAN_POINT ( 'NONE',  ( 4.189777606611760026E-14, 7.686268886141962765E-33, 12.00000000000000000 ) ) ;
#128 = ORIENTED_EDGE ( 'NONE', *, *, #220, .T. ) ;
#129 = APPROVAL ( #118, 'UNSPECIFIED' ) ;
#130 = DIRECTION ( 'NONE',  ( 3.491481338843133355E-15, -1.224646799147353207E-16, 1.000000000000000000 ) ) ;
#131 = AXIS2_PLACEMENT_3D ( 'NONE', #73, #184, #123 ) ;
#132 = EDGE_LOOP ( 'NONE', ( #182 ) ) ;
#133 = EDGE_CURVE ( 'NONE', #85, #85, #167, .T. ) ;
#134 = DIRECTION ( 'NONE',  ( 4.275831445896959482E-31, 1.000000000000000000, 1.224646799147353207E-16 ) ) ;
#135 = AXIS2_PLACEMENT_3D ( 'NONE', #72, #83, #142 ) ;
#136 = CC_DESIGN_APPROVAL ( #218, ( #26 ) ) ;
#137 = PRODUCT_RELATED_PRODUCT_CATEGORY ( 'detail', '', ( #149 ) ) ;
#138 = DIRECTION ( 'NONE',  ( 1.000000000000000000, 0.0000000000000000000, 0.0000000000000000000 ) ) ;
#139 = APPROVAL_ROLE ( '' ) ;
#140 = DATE_AND_TIME ( #96, #77 ) ;
#141 = COORDINATED_UNIVERSAL_TIME_OFFSET ( 1, 0, .AHEAD. ) ;
#142 = DIRECTION ( 'NONE',  ( 3.757912086609264827E-31, 1.000000000000000000, 1.057758217059035510E-16 ) ) ;
#143 = CONICAL_SURFACE ( 'NONE', #4, 1.024999999999993472, 1.029744258676649649 ) ;
#144 = DIRECTION ( 'NONE',  ( -3.491481338843133355E-15, 1.224646799147353207E-16, -1.000000000000000000 ) ) ;
#145 = ADVANCED_FACE ( 'NONE', ( #187, #46 ), #110, .T. ) ;
#146 = EDGE_LOOP ( 'NONE', ( #156 ) ) ;
#147 = AXIS2_PLACEMENT_3D ( 'NONE', #178, #160, #81 ) ;
#148 = EDGE_LOOP ( 'NONE', ( #168 ) ) ;
#149 = PRODUCT ( '61381', '61381', '', ( #17 ) ) ;
#150 = CARTESIAN_POINT ( 'NONE',  ( 4.189777606611760026E-14, 7.686268886141962765E-33, 12.00000000000000000 ) ) ;
#151 = CARTESIAN_POINT ( 'NONE',  ( 2.150340979544982241E-15, 1.024999999999993472, 0.6158821345032523542 ) ) ;
#152 = APPLICATION_CONTEXT ( 'configuration controlled 3d designs of mechanical parts and assemblies' ) ;
#153 = ADVANCED_FACE ( 'NONE', ( #213, #98 ), #92, .T. ) ;
#154 = AXIS2_PLACEMENT_3D ( 'NONE', #181, #162, #40 ) ;
#155 = CALENDAR_DATE ( 2021, 8, 10 ) ;
#156 = ORIENTED_EDGE ( 'NONE', *, *, #9, .F. ) ;
#157 = APPROVAL_STATUS ( 'not_yet_approved' ) ;
#158 = CALENDAR_DATE ( 2021, 8, 10 ) ;
#159 = ORGANIZATION ( 'UNSPECIFIED', 'UNSPECIFIED', '' ) ;
#160 = DIRECTION ( 'NONE',  ( 3.491481338843133355E-15, -1.224646799147353207E-16, 1.000000000000000000 ) ) ;
#161 = CARTESIAN_POINT ( 'NONE',  ( 0.0000000000000000000, 0.0000000000000000000, 0.0000000000000000000 ) ) ;
#162 = DIRECTION ( 'NONE',  ( -3.491481338843133355E-15, 1.224646799147353207E-16, -1.000000000000000000 ) ) ;
#163 = FACE_OUTER_BOUND ( 'NONE', #206, .T. ) ;
#164 = AXIS2_PLACEMENT_3D ( 'NONE', #41, #165, #103 ) ;
#165 = DIRECTION ( 'NONE',  ( -3.491481338843133355E-15, 1.224646799147353207E-16, -1.000000000000000000 ) ) ;
#166 = FACE_BOUND ( 'NONE', #119, .T. ) ;
#167 = CIRCLE ( 'NONE', #114, 0.9500000000000008438 ) ;
#168 = ORIENTED_EDGE ( 'NONE', *, *, #93, .T. ) ;
#169 = CONICAL_SURFACE ( 'NONE', #5, 0.9500000000000008438, 0.7853981633974336241 ) ;
#170 = PERSON_AND_ORGANIZATION_ROLE ( 'design_owner' ) ;
#171 = DIRECTION ( 'NONE',  ( 3.491481338843133355E-15, -1.224646799147353207E-16, 1.000000000000000000 ) ) ;
#172 =( NAMED_UNIT ( * ) PLANE_ANGLE_UNIT ( ) SI_UNIT ( $, .RADIAN. ) );
#173 = DATE_AND_TIME ( #155, #198 ) ;
#174 = CARTESIAN_POINT ( 'NONE',  ( 4.325844625744248352E-14, 1.249999999999994893, 12.38971143170300593 ) ) ;
#175 = EDGE_LOOP ( 'NONE', ( #63 ) ) ;
#176 = SECURITY_CLASSIFICATION_LEVEL ( 'unclassified' ) ;
#177 = CIRCLE ( 'NONE', #68, 1.250000000000000666 ) ;
#178 = CARTESIAN_POINT ( 'NONE',  ( 4.325844625744248352E-14, -1.517302044719445810E-15, 12.38971143170300593 ) ) ;
#179 = APPROVAL_DATE_TIME ( #112, #218 ) ;
#180 = EDGE_CURVE ( 'NONE', #38, #38, #177, .T. ) ;
#181 = CARTESIAN_POINT ( 'NONE',  ( 0.0000000000000000000, 0.0000000000000000000, 0.0000000000000000000 ) ) ;
#182 = ORIENTED_EDGE ( 'NONE', *, *, #133, .F. ) ;
#183 = CARTESIAN_POINT ( 'NONE',  ( 4.189777606611760026E-14, 1.024999999999993694, 12.00000000000000000 ) ) ;
#184 = DIRECTION ( 'NONE',  ( -3.491481338843133355E-15, 1.224646799147353207E-16, -1.000000000000000000 ) ) ;
#185 = ADVANCED_FACE ( 'NONE', ( #59 ), #23, .F. ) ;
#186 = AXIS2_PLACEMENT_3D ( 'NONE', #161, #66, #138 ) ;
#187 = FACE_OUTER_BOUND ( 'NONE', #49, .T. ) ;
#188 = CC_DESIGN_PERSON_AND_ORGANIZATION_ASSIGNMENT ( #116, #51, ( #2 ) ) ;
#189 = ORIENTED_EDGE ( 'NONE', *, *, #93, .F. ) ;
#190 = ADVANCED_BREP_SHAPE_REPRESENTATION ( '61381', ( #111, #195, #186 ), #94 ) ;
#191 = DIRECTION ( 'NONE',  ( -3.491481338843133355E-15, 1.224646799147353207E-16, -1.000000000000000000 ) ) ;
#192 = PERSON_AND_ORGANIZATION ( #219, #159 ) ;
#193 = DIRECTION ( 'NONE',  ( 0.0000000000000000000, 1.000000000000000000, 0.0000000000000000000 ) ) ;
#194 = DATE_AND_TIME ( #82, #35 ) ;
#195 = MANIFOLD_SOLID_BREP ( 'Corps-Déplacer/Copier1[2]', #126 ) ;
#196 = APPROVAL_DATE_TIME ( #173, #129 ) ;
#197 = CARTESIAN_POINT ( 'NONE',  ( 1.501336975702547217E-13, 0.9499999999999955147, 43.00000000000000000 ) ) ;
#198 = LOCAL_TIME ( 7, 16, 8.000000000000000000, #22 ) ;
#199 = ADVANCED_FACE ( 'NONE', ( #109, #166 ), #169, .T. ) ;
#200 = CC_DESIGN_PERSON_AND_ORGANIZATION_ASSIGNMENT ( #214, #88, ( #2 ) ) ;
#201 = UNCERTAINTY_MEASURE_WITH_UNIT (LENGTH_MEASURE( 1.000000000000000082E-05 ), #54, 'distance_accuracy_value', 'NONE');
#202 = CIRCLE ( 'NONE', #223, 1.024999999999995248 ) ;
#203 = DIRECTION ( 'NONE',  ( -3.491481338843133355E-15, 1.224646799147353207E-16, -1.000000000000000000 ) ) ;
#204 = APPROVAL ( #53, 'UNSPECIFIED' ) ;
#205 = DIRECTION ( 'NONE',  ( -4.275831445896958607E-31, -1.000000000000000000, -1.224646799147353207E-16 ) ) ;
#206 = EDGE_LOOP ( 'NONE', ( #128 ) ) ;
#207 = FACE_OUTER_BOUND ( 'NONE', #101, .T. ) ;
#208 = DATE_AND_TIME ( #158, #65 ) ;
#209 = CC_DESIGN_SECURITY_CLASSIFICATION ( #99, ( #2 ) ) ;
#210 = CARTESIAN_POINT ( 'NONE',  ( 1.490862531686017501E-13, 1.249999999999995559, 42.69999999999998863 ) ) ;
#211 = EDGE_LOOP ( 'NONE', ( #43 ) ) ;
#212 = PERSON_AND_ORGANIZATION_ROLE ( 'creator' ) ;
#213 = FACE_BOUND ( 'NONE', #175, .T. ) ;
#214 = PERSON_AND_ORGANIZATION ( #219, #159 ) ;
#215 = APPROVAL_DATE_TIME ( #140, #204 ) ;
#216 = CIRCLE ( 'NONE', #131, 1.024999999999995248 ) ;
#217 = VERTEX_POINT ( 'NONE', #183 ) ;
#218 = APPROVAL ( #157, 'UNSPECIFIED' ) ;
#219 = PERSON ( 'UNSPECIFIED', 'UNSPECIFIED', 'UNSPECIFIED', ('UNSPECIFIED'), ('UNSPECIFIED'), ('UNSPECIFIED') ) ;
#220 = EDGE_CURVE ( 'NONE', #84, #84, #202, .T. ) ;
#221 = CARTESIAN_POINT ( 'NONE',  ( 4.189777606611760026E-14, 1.024999999999993694, 12.00000000000000000 ) ) ;
#222 = CIRCLE ( 'NONE', #164, 1.249999999999996447 ) ;
#223 = AXIS2_PLACEMENT_3D ( 'NONE', #115, #11, #27 ) ;
ENDSEC;
END-ISO-10303-21;
