ISO-10303-21;
HEADER;
FILE_DESCRIPTION (( 'STEP AP203' ),
    '1' );
FILE_NAME ('61378.step',
    '2021-10-08T05:16:07',
    ( '' ),
    ( '' ),
    'SwSTEP 2.0',
    'SolidWorks 2019',
    '' );
FILE_SCHEMA (( 'CONFIG_CONTROL_DESIGN' ));
ENDSEC;

DATA;
#1 = CC_DESIGN_PERSON_AND_ORGANIZATION_ASSIGNMENT ( #159, #162, ( #32 ) ) ;
#2 = DATE_AND_TIME ( #191, #33 ) ;
#3 = EDGE_LOOP ( 'NONE', ( #172 ) ) ;
#4 = LOCAL_TIME ( 7, 16, 7.000000000000000000, #94 ) ;
#5 = CALENDAR_DATE ( 2021, 8, 10 ) ;
#6 = DIRECTION ( 'NONE',  ( 3.491481338843133355E-15, -1.224646799147353207E-16, 1.000000000000000000 ) ) ;
#7 = CC_DESIGN_PERSON_AND_ORGANIZATION_ASSIGNMENT ( #38, #164, ( #200 ) ) ;
#8 = CARTESIAN_POINT ( 'NONE',  ( 0.0000000000000000000, 0.0000000000000000000, 0.0000000000000000000 ) ) ;
#9 = CARTESIAN_POINT ( 'NONE',  ( 2.139851511352078775E-15, -7.505588745023181987E-17, 0.6128778314081141376 ) ) ;
#10 = CARTESIAN_POINT ( 'NONE',  ( 4.189777606611760026E-14, -1.469576158976823947E-15, 12.00000000000000000 ) ) ;
#11 = FACE_BOUND ( 'NONE', #110, .T. ) ;
#12 = AXIS2_PLACEMENT_3D ( 'NONE', #66, #6, #158 ) ;
#13 = EDGE_CURVE ( 'NONE', #86, #86, #136, .T. ) ;
#14 = VERTEX_POINT ( 'NONE', #46 ) ;
#15 = APPLICATION_PROTOCOL_DEFINITION ( 'international standard', 'config_control_design', 1994, #192 ) ;
#16 = AXIS2_PLACEMENT_3D ( 'NONE', #10, #186, #129 ) ;
#17 = ORIENTED_EDGE ( 'NONE', *, *, #84, .T. ) ;
#18 = CARTESIAN_POINT ( 'NONE',  ( 0.0000000000000000000, 0.0000000000000000000, 0.0000000000000000000 ) ) ;
#19 = AXIS2_PLACEMENT_3D ( 'NONE', #54, #26, #34 ) ;
#20 = PERSON ( 'UNSPECIFIED', 'UNSPECIFIED', 'UNSPECIFIED', ('UNSPECIFIED'), ('UNSPECIFIED'), ('UNSPECIFIED') ) ;
#21 = CYLINDRICAL_SURFACE ( 'NONE', #77, 1.019999999999994467 ) ;
#22 = FACE_OUTER_BOUND ( 'NONE', #3, .T. ) ;
#23 = FACE_BOUND ( 'NONE', #105, .T. ) ;
#24 = CLOSED_SHELL ( 'NONE', ( #101, #213, #48 ) ) ;
#25 = CC_DESIGN_SECURITY_CLASSIFICATION ( #200, ( #157 ) ) ;
#26 = DIRECTION ( 'NONE',  ( -3.491481338843133355E-15, 1.224646799147353207E-16, -1.000000000000000000 ) ) ;
#27 = FACE_OUTER_BOUND ( 'NONE', #73, .T. ) ;
#28 = ADVANCED_FACE ( 'NONE', ( #71, #22 ), #145, .T. ) ;
#29 = EDGE_CURVE ( 'NONE', #169, #169, #102, .T. ) ;
#30 = EDGE_LOOP ( 'NONE', ( #130 ) ) ;
#31 = APPROVAL_DATE_TIME ( #206, #167 ) ;
#32 = PRODUCT_DEFINITION ( 'UNKNOWN', '', #157, #35 ) ;
#33 = LOCAL_TIME ( 7, 16, 7.000000000000000000, #111 ) ;
#34 = DIRECTION ( 'NONE',  ( 3.776333224288722214E-31, 1.000000000000000000, 1.062943306358344566E-16 ) ) ;
#35 = DESIGN_CONTEXT ( 'detailed design', #192, 'design' ) ;
#36 = COORDINATED_UNIVERSAL_TIME_OFFSET ( 1, 0, .AHEAD. ) ;
#37 = FACE_OUTER_BOUND ( 'NONE', #68, .T. ) ;
#38 = PERSON_AND_ORGANIZATION ( #20, #107 ) ;
#39 = FACE_OUTER_BOUND ( 'NONE', #58, .T. ) ;
#40 = FACE_OUTER_BOUND ( 'NONE', #208, .T. ) ;
#41 = APPROVAL_ROLE ( '' ) ;
#42 = CC_DESIGN_PERSON_AND_ORGANIZATION_ASSIGNMENT ( #182, #64, ( #157 ) ) ;
#43 = CARTESIAN_POINT ( 'NONE',  ( 4.189777606611760026E-14, 1.019999999999994023, 12.00000000000000000 ) ) ;
#44 = ORIENTED_EDGE ( 'NONE', *, *, #13, .T. ) ;
#45 = CC_DESIGN_APPROVAL ( #132, ( #200 ) ) ;
#46 = CARTESIAN_POINT ( 'NONE',  ( 4.189777606611760026E-14, 1.019999999999994023, 12.00000000000000000 ) ) ;
#47 = APPROVAL_ROLE ( '' ) ;
#48 = ADVANCED_FACE ( 'NONE', ( #198 ), #69, .T. ) ;
#49 = DIRECTION ( 'NONE',  ( -4.275831445896958607E-31, -1.000000000000000000, -1.224646799147353207E-16 ) ) ;
#50 = DIRECTION ( 'NONE',  ( -3.491481338843133355E-15, 1.224646799147353207E-16, -1.000000000000000000 ) ) ;
#51 = DIRECTION ( 'NONE',  ( -3.491481338843133355E-15, 1.224646799147353207E-16, -1.000000000000000000 ) ) ;
#52 = DIRECTION ( 'NONE',  ( -3.491481338843133355E-15, 1.224646799147353207E-16, -1.000000000000000000 ) ) ;
#53 = LOCAL_TIME ( 7, 16, 7.000000000000000000, #178 ) ;
#54 = CARTESIAN_POINT ( 'NONE',  ( 2.139851511352078775E-15, -7.505588745023181987E-17, 0.6128778314081141376 ) ) ;
#55 = EDGE_LOOP ( 'NONE', ( #148 ) ) ;
#56 = ORIENTED_EDGE ( 'NONE', *, *, #84, .F. ) ;
#57 = CIRCLE ( 'NONE', #179, 1.249999999999996447 ) ;
#58 = EDGE_LOOP ( 'NONE', ( #44 ) ) ;
#59 = LOCAL_TIME ( 7, 16, 7.000000000000000000, #137 ) ;
#60 = APPLICATION_CONTEXT ( 'configuration controlled 3d designs of mechanical parts and assemblies' ) ;
#61 = APPROVAL_STATUS ( 'not_yet_approved' ) ;
#62 = AXIS2_PLACEMENT_3D ( 'NONE', #197, #50, #147 ) ;
#63 = CC_DESIGN_APPROVAL ( #89, ( #32 ) ) ;
#64 = PERSON_AND_ORGANIZATION_ROLE ( 'design_supplier' ) ;
#65 = APPROVAL_DATE_TIME ( #75, #89 ) ;
#66 = CARTESIAN_POINT ( 'NONE',  ( 4.189777606611760026E-14, 7.648774891575417420E-33, 12.00000000000000000 ) ) ;
#67 = PLANE ( 'NONE',  #138 ) ;
#68 = EDGE_LOOP ( 'NONE', ( #90 ) ) ;
#69 = PLANE ( 'NONE',  #12 ) ;
#70 = CC_DESIGN_PERSON_AND_ORGANIZATION_ASSIGNMENT ( #97, #180, ( #104 ) ) ;
#71 = FACE_OUTER_BOUND ( 'NONE', #205, .T. ) ;
#72 = AXIS2_PLACEMENT_3D ( 'NONE', #124, #146, #141 ) ;
#73 = EDGE_LOOP ( 'NONE', ( #120 ) ) ;
#74 = ADVANCED_FACE ( 'NONE', ( #23, #143 ), #122, .T. ) ;
#75 = DATE_AND_TIME ( #115, #59 ) ;
#76 = CIRCLE ( 'NONE', #19, 1.019999999999993356 ) ;
#77 = AXIS2_PLACEMENT_3D ( 'NONE', #79, #160, #103 ) ;
#78 = DIRECTION ( 'NONE',  ( -3.491481338843133355E-15, 1.224646799147353207E-16, -1.000000000000000000 ) ) ;
#79 = CARTESIAN_POINT ( 'NONE',  ( 0.0000000000000000000, 0.0000000000000000000, 0.0000000000000000000 ) ) ;
#80 = PRODUCT_RELATED_PRODUCT_CATEGORY ( 'detail', '', ( #104 ) ) ;
#81 = CARTESIAN_POINT ( 'NONE',  ( 4.328868337280525856E-14, -1.518362619958170460E-15, 12.39837168574084991 ) ) ;
#82 = CIRCLE ( 'NONE', #16, 1.019999999999995577 ) ;
#83 = DIRECTION ( 'NONE',  ( 0.0000000000000000000, 1.000000000000000000, 0.0000000000000000000 ) ) ;
#84 = EDGE_CURVE ( 'NONE', #203, #203, #57, .T. ) ;
#85 = CARTESIAN_POINT ( 'NONE',  ( 1.501336975702547217E-13, 7.123858967643751109E-33, 43.00000000000000000 ) ) ;
#86 = VERTEX_POINT ( 'NONE', #43 ) ;
#87 = AXIS2_PLACEMENT_3D ( 'NONE', #8, #52, #177 ) ;
#88 = AXIS2_PLACEMENT_3D ( 'NONE', #212, #199, #49 ) ;
#89 = APPROVAL ( #61, 'UNSPECIFIED' ) ;
#90 = ORIENTED_EDGE ( 'NONE', *, *, #29, .F. ) ;
#91 = APPROVAL_ROLE ( '' ) ;
#92 = PERSON_AND_ORGANIZATION ( #20, #107 ) ;
#93 = MANIFOLD_SOLID_BREP ( 'Corps-Déplacer/Copier1[2]', #24 ) ;
#94 = COORDINATED_UNIVERSAL_TIME_OFFSET ( 1, 0, .AHEAD. ) ;
#95 = EDGE_LOOP ( 'NONE', ( #17 ) ) ;
#96 = PERSON_AND_ORGANIZATION_ROLE ( 'creator' ) ;
#97 = PERSON_AND_ORGANIZATION ( #20, #107 ) ;
#98 = CARTESIAN_POINT ( 'NONE',  ( 1.501336975702547217E-13, -5.265981236333618470E-15, 43.00000000000000000 ) ) ;
#99 =( NAMED_UNIT ( * ) SI_UNIT ( $, .STERADIAN. ) SOLID_ANGLE_UNIT ( ) );
#100 = DIRECTION ( 'NONE',  ( 3.491481338843133355E-15, -1.224646799147353207E-16, 1.000000000000000000 ) ) ;
#101 = ADVANCED_FACE ( 'NONE', ( #220 ), #216, .T. ) ;
#102 = CIRCLE ( 'NONE', #163, 1.250000000000000666 ) ;
#103 = DIRECTION ( 'NONE',  ( 4.275831445896959482E-31, 1.000000000000000000, 1.224646799147353207E-16 ) ) ;
#104 = PRODUCT ( '61378', '61378', '', ( #142 ) ) ;
#105 = EDGE_LOOP ( 'NONE', ( #153 ) ) ;
#106 = CARTESIAN_POINT ( 'NONE',  ( 1.490862531686017501E-13, 1.249999999999995559, 42.69999999999998863 ) ) ;
#107 = ORGANIZATION ( 'UNSPECIFIED', 'UNSPECIFIED', '' ) ;
#108 = ADVANCED_FACE ( 'NONE', ( #37, #11 ), #214, .T. ) ;
#109 = VERTEX_POINT ( 'NONE', #173 ) ;
#110 = EDGE_LOOP ( 'NONE', ( #190 ) ) ;
#111 = COORDINATED_UNIVERSAL_TIME_OFFSET ( 1, 0, .AHEAD. ) ;
#112 = VERTEX_POINT ( 'NONE', #210 ) ;
#113 = PERSON_AND_ORGANIZATION ( #20, #107 ) ;
#114 = LOCAL_TIME ( 7, 16, 7.000000000000000000, #36 ) ;
#115 = CALENDAR_DATE ( 2021, 8, 10 ) ;
#116 = APPROVAL_STATUS ( 'not_yet_approved' ) ;
#117 = SECURITY_CLASSIFICATION_LEVEL ( 'unclassified' ) ;
#118 = CC_DESIGN_PERSON_AND_ORGANIZATION_ASSIGNMENT ( #92, #96, ( #157 ) ) ;
#119 = DATE_AND_TIME ( #5, #4 ) ;
#120 = ORIENTED_EDGE ( 'NONE', *, *, #151, .F. ) ;
#121 = UNCERTAINTY_MEASURE_WITH_UNIT (LENGTH_MEASURE( 1.000000000000000082E-05 ), #176, 'distance_accuracy_value', 'NONE');
#122 = CONICAL_SURFACE ( 'NONE', #72, 1.249999999999996447, 0.5235987755982922653 ) ;
#123 = DATE_TIME_ROLE ( 'creation_date' ) ;
#124 = CARTESIAN_POINT ( 'NONE',  ( 4.328868337280525856E-14, -1.518362619958170460E-15, 12.39837168574084991 ) ) ;
#125 = PLANE ( 'NONE',  #88 ) ;
#126 = PERSON_AND_ORGANIZATION ( #20, #107 ) ;
#127 = CLOSED_SHELL ( 'NONE', ( #174, #74, #28, #108, #218 ) ) ;
#128 = CIRCLE ( 'NONE', #211, 0.9500000000000008438 ) ;
#129 = DIRECTION ( 'NONE',  ( 0.0000000000000000000, 1.000000000000000000, 0.0000000000000000000 ) ) ;
#130 = ORIENTED_EDGE ( 'NONE', *, *, #133, .F. ) ;
#131 = CALENDAR_DATE ( 2021, 8, 10 ) ;
#132 = APPROVAL ( #116, 'UNSPECIFIED' ) ;
#133 = EDGE_CURVE ( 'NONE', #14, #14, #82, .T. ) ;
#134 = AXIS2_PLACEMENT_3D ( 'NONE', #98, #161, #165 ) ;
#135 = CALENDAR_DATE ( 2021, 8, 10 ) ;
#136 = CIRCLE ( 'NONE', #62, 1.019999999999995577 ) ;
#137 = COORDINATED_UNIVERSAL_TIME_OFFSET ( 1, 0, .AHEAD. ) ;
#138 = AXIS2_PLACEMENT_3D ( 'NONE', #85, #78, #166 ) ;
#139 = APPROVAL_DATE_TIME ( #2, #132 ) ;
#140 = EDGE_CURVE ( 'NONE', #109, #109, #76, .T. ) ;
#141 = DIRECTION ( 'NONE',  ( 0.0000000000000000000, -1.000000000000000000, 0.0000000000000000000 ) ) ;
#142 = MECHANICAL_CONTEXT ( 'NONE', #60, 'mechanical' ) ;
#143 = FACE_OUTER_BOUND ( 'NONE', #95, .T. ) ;
#144 = CC_DESIGN_APPROVAL ( #167, ( #157 ) ) ;
#145 = CYLINDRICAL_SURFACE ( 'NONE', #87, 1.249999999999998446 ) ;
#146 = DIRECTION ( 'NONE',  ( 3.491481338843133355E-15, -1.224646799147353207E-16, 1.000000000000000000 ) ) ;
#147 = DIRECTION ( 'NONE',  ( 0.0000000000000000000, 1.000000000000000000, 0.0000000000000000000 ) ) ;
#148 = ORIENTED_EDGE ( 'NONE', *, *, #140, .T. ) ;
#149 = PRODUCT_DEFINITION_SHAPE ( 'NONE', 'NONE',  #32 ) ;
#150 = DATE_TIME_ROLE ( 'classification_date' ) ;
#151 = EDGE_CURVE ( 'NONE', #112, #112, #128, .T. ) ;
#152 = APPROVAL_PERSON_ORGANIZATION ( #113, #89, #91 ) ;
#153 = ORIENTED_EDGE ( 'NONE', *, *, #13, .F. ) ;
#154 = DIRECTION ( 'NONE',  ( 1.000000000000000000, 0.0000000000000000000, 0.0000000000000000000 ) ) ;
#155 =( GEOMETRIC_REPRESENTATION_CONTEXT ( 3 ) GLOBAL_UNCERTAINTY_ASSIGNED_CONTEXT ( ( #121 ) ) GLOBAL_UNIT_ASSIGNED_CONTEXT ( ( #176, #156, #99 ) ) REPRESENTATION_CONTEXT ( 'NONE', 'WORKASPACE' ) );
#156 =( NAMED_UNIT ( * ) PLANE_ANGLE_UNIT ( ) SI_UNIT ( $, .RADIAN. ) );
#157 = PRODUCT_DEFINITION_FORMATION_WITH_SPECIFIED_SOURCE ( 'ANY', '', #104, .NOT_KNOWN. ) ;
#158 = DIRECTION ( 'NONE',  ( -4.275831445896958607E-31, -1.000000000000000000, -1.224646799147353207E-16 ) ) ;
#159 = PERSON_AND_ORGANIZATION ( #20, #107 ) ;
#160 = DIRECTION ( 'NONE',  ( -3.491481338843133355E-15, 1.224646799147353207E-16, -1.000000000000000000 ) ) ;
#161 = DIRECTION ( 'NONE',  ( -3.491481338843133355E-15, 1.224646799147353207E-16, -1.000000000000000000 ) ) ;
#162 = PERSON_AND_ORGANIZATION_ROLE ( 'creator' ) ;
#163 = AXIS2_PLACEMENT_3D ( 'NONE', #217, #51, #183 ) ;
#164 = PERSON_AND_ORGANIZATION_ROLE ( 'classification_officer' ) ;
#165 = DIRECTION ( 'NONE',  ( 0.0000000000000000000, 1.000000000000000000, 0.0000000000000000000 ) ) ;
#166 = DIRECTION ( 'NONE',  ( 4.275831445896958607E-31, 1.000000000000000000, 1.224646799147353207E-16 ) ) ;
#167 = APPROVAL ( #201, 'UNSPECIFIED' ) ;
#168 = EDGE_LOOP ( 'NONE', ( #193 ) ) ;
#169 = VERTEX_POINT ( 'NONE', #106 ) ;
#170 = AXIS2_PLACEMENT_3D ( 'NONE', #18, #209, #154 ) ;
#171 = PERSON_AND_ORGANIZATION ( #20, #107 ) ;
#172 = ORIENTED_EDGE ( 'NONE', *, *, #29, .T. ) ;
#173 = CARTESIAN_POINT ( 'NONE',  ( 2.139851511352079169E-15, 1.019999999999993356, 0.6128778314081142486 ) ) ;
#174 = ADVANCED_FACE ( 'NONE', ( #39 ), #125, .F. ) ;
#175 = APPLICATION_PROTOCOL_DEFINITION ( 'international standard', 'config_control_design', 1994, #60 ) ;
#176 =( LENGTH_UNIT ( ) NAMED_UNIT ( * ) SI_UNIT ( .MILLI., .METRE. ) );
#177 = DIRECTION ( 'NONE',  ( 4.275831445896959482E-31, 1.000000000000000000, 1.224646799147353207E-16 ) ) ;
#178 = COORDINATED_UNIVERSAL_TIME_OFFSET ( 1, 0, .AHEAD. ) ;
#179 = AXIS2_PLACEMENT_3D ( 'NONE', #81, #215, #83 ) ;
#180 = PERSON_AND_ORGANIZATION_ROLE ( 'design_owner' ) ;
#181 = DIRECTION ( 'NONE',  ( 0.0000000000000000000, 1.000000000000000000, 0.0000000000000000000 ) ) ;
#182 = PERSON_AND_ORGANIZATION ( #20, #107 ) ;
#183 = DIRECTION ( 'NONE',  ( 0.0000000000000000000, 1.000000000000000000, 0.0000000000000000000 ) ) ;
#184 = ADVANCED_BREP_SHAPE_REPRESENTATION ( '61378', ( #188, #93, #170 ), #155 ) ;
#185 = DIRECTION ( 'NONE',  ( -3.491481338843133355E-15, 1.224646799147353207E-16, -1.000000000000000000 ) ) ;
#186 = DIRECTION ( 'NONE',  ( -3.491481338843133355E-15, 1.224646799147353207E-16, -1.000000000000000000 ) ) ;
#187 = SHAPE_DEFINITION_REPRESENTATION ( #149, #184 ) ;
#188 = MANIFOLD_SOLID_BREP ( 'Corps-Déplacer/Copier1[1]', #127 ) ;
#189 = DATE_AND_TIME ( #131, #53 ) ;
#190 = ORIENTED_EDGE ( 'NONE', *, *, #151, .T. ) ;
#191 = CALENDAR_DATE ( 2021, 8, 10 ) ;
#192 = APPLICATION_CONTEXT ( 'configuration controlled 3d designs of mechanical parts and assemblies' ) ;
#193 = ORIENTED_EDGE ( 'NONE', *, *, #133, .T. ) ;
#194 = CC_DESIGN_DATE_AND_TIME_ASSIGNMENT ( #119, #150, ( #200 ) ) ;
#195 = AXIS2_PLACEMENT_3D ( 'NONE', #9, #100, #219 ) ;
#196 = CARTESIAN_POINT ( 'NONE',  ( 1.501336975702547217E-13, -5.265981236333618470E-15, 43.00000000000000000 ) ) ;
#197 = CARTESIAN_POINT ( 'NONE',  ( 4.189777606611760026E-14, -1.469576158976823947E-15, 12.00000000000000000 ) ) ;
#198 = FACE_OUTER_BOUND ( 'NONE', #30, .T. ) ;
#199 = DIRECTION ( 'NONE',  ( 3.491481338843133355E-15, -1.224646799147353207E-16, 1.000000000000000000 ) ) ;
#200 = SECURITY_CLASSIFICATION ( '', '', #117 ) ;
#201 = APPROVAL_STATUS ( 'not_yet_approved' ) ;
#202 = FACE_OUTER_BOUND ( 'NONE', #168, .T. ) ;
#203 = VERTEX_POINT ( 'NONE', #222 ) ;
#204 = APPROVAL_PERSON_ORGANIZATION ( #171, #132, #47 ) ;
#205 = EDGE_LOOP ( 'NONE', ( #56 ) ) ;
#206 = DATE_AND_TIME ( #135, #114 ) ;
#207 = CC_DESIGN_DATE_AND_TIME_ASSIGNMENT ( #189, #123, ( #32 ) ) ;
#208 = EDGE_LOOP ( 'NONE', ( #221 ) ) ;
#209 = DIRECTION ( 'NONE',  ( 0.0000000000000000000, 0.0000000000000000000, 1.000000000000000000 ) ) ;
#210 = CARTESIAN_POINT ( 'NONE',  ( 1.501336975702547217E-13, 0.9499999999999955147, 43.00000000000000000 ) ) ;
#211 = AXIS2_PLACEMENT_3D ( 'NONE', #196, #185, #181 ) ;
#212 = CARTESIAN_POINT ( 'NONE',  ( 4.189777606611760026E-14, 7.648774891575417420E-33, 12.00000000000000000 ) ) ;
#213 = ADVANCED_FACE ( 'NONE', ( #40, #202 ), #21, .T. ) ;
#214 = CONICAL_SURFACE ( 'NONE', #134, 0.9500000000000008438, 0.7853981633974336241 ) ;
#215 = DIRECTION ( 'NONE',  ( -3.491481338843133355E-15, 1.224646799147353207E-16, -1.000000000000000000 ) ) ;
#216 = CONICAL_SURFACE ( 'NONE', #195, 1.019999999999993356, 1.029744258676649649 ) ;
#217 = CARTESIAN_POINT ( 'NONE',  ( 1.490862531686017501E-13, -5.229241832359196822E-15, 42.69999999999998863 ) ) ;
#218 = ADVANCED_FACE ( 'NONE', ( #27 ), #67, .F. ) ;
#219 = DIRECTION ( 'NONE',  ( -3.776333224288722214E-31, -1.000000000000000000, -1.062943306358344566E-16 ) ) ;
#220 = FACE_OUTER_BOUND ( 'NONE', #55, .T. ) ;
#221 = ORIENTED_EDGE ( 'NONE', *, *, #140, .F. ) ;
#222 = CARTESIAN_POINT ( 'NONE',  ( 4.328868337280525856E-14, 1.249999999999994893, 12.39837168574084991 ) ) ;
#223 = APPROVAL_PERSON_ORGANIZATION ( #126, #167, #41 ) ;
ENDSEC;
END-ISO-10303-21;
