ISO-10303-21;
HEADER;
FILE_DESCRIPTION (( 'STEP AP203' ),
    '1' );
FILE_NAME ('61376.step',
    '2021-10-07T13:48:27',
    ( '' ),
    ( '' ),
    'SwSTEP 2.0',
    'SolidWorks 2019',
    '' );
FILE_SCHEMA (( 'CONFIG_CONTROL_DESIGN' ));
ENDSEC;

DATA;
#1 = AXIS2_PLACEMENT_3D ( 'NONE', #56, #91, #153 ) ;
#2 = VERTEX_POINT ( 'NONE', #126 ) ;
#3 = FACE_OUTER_BOUND ( 'NONE', #48, .T. ) ;
#4 = ADVANCED_FACE ( 'NONE', ( #161, #199 ), #63, .T. ) ;
#5 = APPROVAL_PERSON_ORGANIZATION ( #15, #43, #83 ) ;
#6 = DIRECTION ( 'NONE',  ( -3.491481338843133355E-15, 1.224646799147353207E-16, -1.000000000000000000 ) ) ;
#7 = CARTESIAN_POINT ( 'NONE',  ( 2.139851511352079169E-15, -7.505588745023184453E-17, 0.6128778314081142486 ) ) ;
#8 = ORIENTED_EDGE ( 'NONE', *, *, #88, .T. ) ;
#9 = DIRECTION ( 'NONE',  ( -4.275831445896958607E-31, -1.000000000000000000, -1.224646799147353207E-16 ) ) ;
#10 = AXIS2_PLACEMENT_3D ( 'NONE', #215, #26, #195 ) ;
#11 = LOCAL_TIME ( 15, 48, 27.00000000000000000, #51 ) ;
#12 = EDGE_LOOP ( 'NONE', ( #97 ) ) ;
#13 = CC_DESIGN_PERSON_AND_ORGANIZATION_ASSIGNMENT ( #180, #130, ( #170 ) ) ;
#14 = APPROVAL_ROLE ( '' ) ;
#15 = PERSON_AND_ORGANIZATION ( #116, #96 ) ;
#16 = APPLICATION_PROTOCOL_DEFINITION ( 'international standard', 'config_control_design', 1994, #213 ) ;
#17 = ADVANCED_FACE ( 'NONE', ( #221, #160 ), #47, .T. ) ;
#18 = DATE_AND_TIME ( #52, #118 ) ;
#19 = CARTESIAN_POINT ( 'NONE',  ( 4.189777606611760026E-14, 1.019999999999993134, 12.00000000000000000 ) ) ;
#20 =( LENGTH_UNIT ( ) NAMED_UNIT ( * ) SI_UNIT ( .MILLI., .METRE. ) );
#21 = EDGE_CURVE ( 'NONE', #2, #2, #154, .T. ) ;
#22 = CARTESIAN_POINT ( 'NONE',  ( 4.189777606611760026E-14, -1.469576158976823947E-15, 12.00000000000000000 ) ) ;
#23 = CARTESIAN_POINT ( 'NONE',  ( 1.490862531686017501E-13, 1.249999999999995559, 42.69999999999998863 ) ) ;
#24 = AXIS2_PLACEMENT_3D ( 'NONE', #127, #82, #62 ) ;
#25 = EDGE_LOOP ( 'NONE', ( #113 ) ) ;
#26 = DIRECTION ( 'NONE',  ( 3.491481338843133355E-15, -1.224646799147353207E-16, 1.000000000000000000 ) ) ;
#27 = ADVANCED_FACE ( 'NONE', ( #61 ), #208, .T. ) ;
#28 = EDGE_LOOP ( 'NONE', ( #8 ) ) ;
#29 = DIRECTION ( 'NONE',  ( 3.491481338843133355E-15, -1.224646799147353207E-16, 1.000000000000000000 ) ) ;
#30 = CIRCLE ( 'NONE', #78, 1.249999999999996891 ) ;
#31 = SECURITY_CLASSIFICATION ( '', '', #169 ) ;
#32 = ORIENTED_EDGE ( 'NONE', *, *, #188, .T. ) ;
#33 = UNCERTAINTY_MEASURE_WITH_UNIT (LENGTH_MEASURE( 1.000000000000000082E-05 ), #20, 'distance_accuracy_value', 'NONE');
#34 = CC_DESIGN_DATE_AND_TIME_ASSIGNMENT ( #18, #120, ( #31 ) ) ;
#35 = DATE_AND_TIME ( #77, #209 ) ;
#36 = COORDINATED_UNIVERSAL_TIME_OFFSET ( 1, 0, .AHEAD. ) ;
#37 = DIRECTION ( 'NONE',  ( 4.275831445896958607E-31, 1.000000000000000000, 1.224646799147353207E-16 ) ) ;
#38 = DIRECTION ( 'NONE',  ( 1.000000000000000000, 0.0000000000000000000, 0.0000000000000000000 ) ) ;
#39 = ORIENTED_EDGE ( 'NONE', *, *, #210, .T. ) ;
#40 = CC_DESIGN_PERSON_AND_ORGANIZATION_ASSIGNMENT ( #207, #101, ( #186 ) ) ;
#41 = FACE_OUTER_BOUND ( 'NONE', #184, .T. ) ;
#42 = DIRECTION ( 'NONE',  ( 0.0000000000000000000, 1.000000000000000000, 0.0000000000000000000 ) ) ;
#43 = APPROVAL ( #166, 'UNSPECIFIED' ) ;
#44 = DIRECTION ( 'NONE',  ( -3.491481338843133355E-15, 1.224646799147353207E-16, -1.000000000000000000 ) ) ;
#45 = DIRECTION ( 'NONE',  ( -3.776333224288722214E-31, -1.000000000000000000, -1.062943306358344566E-16 ) ) ;
#46 = APPROVAL_PERSON_ORGANIZATION ( #149, #85, #206 ) ;
#47 = CYLINDRICAL_SURFACE ( 'NONE', #24, 1.249999999999998890 ) ;
#48 = EDGE_LOOP ( 'NONE', ( #193 ) ) ;
#49 = EDGE_LOOP ( 'NONE', ( #212 ) ) ;
#50 = CC_DESIGN_PERSON_AND_ORGANIZATION_ASSIGNMENT ( #68, #71, ( #31 ) ) ;
#51 = COORDINATED_UNIVERSAL_TIME_OFFSET ( 1, 0, .AHEAD. ) ;
#52 = CALENDAR_DATE ( 2021, 7, 10 ) ;
#53 = APPROVAL ( #86, 'UNSPECIFIED' ) ;
#54 = CONICAL_SURFACE ( 'NONE', #1, 0.9500000000000008438, 0.7853981633974336241 ) ;
#55 = EDGE_LOOP ( 'NONE', ( #39 ) ) ;
#56 = CARTESIAN_POINT ( 'NONE',  ( 1.501336975702547217E-13, -5.265981236333618470E-15, 43.00000000000000000 ) ) ;
#57 = CC_DESIGN_PERSON_AND_ORGANIZATION_ASSIGNMENT ( #100, #183, ( #165 ) ) ;
#58 = PLANE ( 'NONE',  #179 ) ;
#59 = CARTESIAN_POINT ( 'NONE',  ( 4.328868337280526488E-14, 1.249999999999995559, 12.39837168574085169 ) ) ;
#60 = CARTESIAN_POINT ( 'NONE',  ( 4.189777606611760026E-14, 1.019999999999993134, 12.00000000000000000 ) ) ;
#61 = FACE_OUTER_BOUND ( 'NONE', #12, .T. ) ;
#62 = DIRECTION ( 'NONE',  ( 4.275831445896959482E-31, 1.000000000000000000, 1.224646799147353454E-16 ) ) ;
#63 = CYLINDRICAL_SURFACE ( 'NONE', #117, 1.019999999999994023 ) ;
#64 = CARTESIAN_POINT ( 'NONE',  ( 0.0000000000000000000, 0.0000000000000000000, 0.0000000000000000000 ) ) ;
#65 = DATE_AND_TIME ( #67, #104 ) ;
#66 = CIRCLE ( 'NONE', #103, 0.9500000000000008438 ) ;
#67 = CALENDAR_DATE ( 2021, 7, 10 ) ;
#68 = PERSON_AND_ORGANIZATION ( #116, #96 ) ;
#69 = APPLICATION_PROTOCOL_DEFINITION ( 'international standard', 'config_control_design', 1994, #200 ) ;
#70 = CC_DESIGN_PERSON_AND_ORGANIZATION_ASSIGNMENT ( #81, #171, ( #170 ) ) ;
#71 = PERSON_AND_ORGANIZATION_ROLE ( 'classification_officer' ) ;
#72 = VERTEX_POINT ( 'NONE', #19 ) ;
#73 = VERTEX_POINT ( 'NONE', #23 ) ;
#74 = PLANE ( 'NONE',  #194 ) ;
#75 = EDGE_LOOP ( 'NONE', ( #32 ) ) ;
#76 = DIRECTION ( 'NONE',  ( -3.491481338843133355E-15, 1.224646799147353207E-16, -1.000000000000000000 ) ) ;
#77 = CALENDAR_DATE ( 2021, 7, 10 ) ;
#78 = AXIS2_PLACEMENT_3D ( 'NONE', #164, #111, #181 ) ;
#79 = CIRCLE ( 'NONE', #147, 1.019999999999994689 ) ;
#80 = FACE_BOUND ( 'NONE', #123, .T. ) ;
#81 = PERSON_AND_ORGANIZATION ( #116, #96 ) ;
#82 = DIRECTION ( 'NONE',  ( -3.491481338843133355E-15, 1.224646799147353207E-16, -1.000000000000000000 ) ) ;
#83 = APPROVAL_ROLE ( '' ) ;
#84 = COORDINATED_UNIVERSAL_TIME_OFFSET ( 1, 0, .AHEAD. ) ;
#85 = APPROVAL ( #151, 'UNSPECIFIED' ) ;
#86 = APPROVAL_STATUS ( 'not_yet_approved' ) ;
#87 = CIRCLE ( 'NONE', #128, 1.019999999999994689 ) ;
#88 = EDGE_CURVE ( 'NONE', #172, #172, #30, .T. ) ;
#89 = EDGE_CURVE ( 'NONE', #121, #121, #66, .T. ) ;
#90 = LOCAL_TIME ( 15, 48, 27.00000000000000000, #106 ) ;
#91 = DIRECTION ( 'NONE',  ( -3.491481338843133355E-15, 1.224646799147353207E-16, -1.000000000000000000 ) ) ;
#92 = DIRECTION ( 'NONE',  ( 4.275831445896959482E-31, 1.000000000000000000, 1.224646799147352961E-16 ) ) ;
#93 = DIRECTION ( 'NONE',  ( -3.491481338843133355E-15, 1.224646799147353207E-16, -1.000000000000000000 ) ) ;
#94 = EDGE_LOOP ( 'NONE', ( #115 ) ) ;
#95 = ADVANCED_FACE ( 'NONE', ( #218 ), #112, .F. ) ;
#96 = ORGANIZATION ( 'UNSPECIFIED', 'UNSPECIFIED', '' ) ;
#97 = ORIENTED_EDGE ( 'NONE', *, *, #21, .T. ) ;
#98 = CLOSED_SHELL ( 'NONE', ( #27, #4, #191 ) ) ;
#99 = MANIFOLD_SOLID_BREP ( 'Corps-Déplacer/Copier1[1]', #222 ) ;
#100 = PERSON_AND_ORGANIZATION ( #116, #96 ) ;
#101 = PERSON_AND_ORGANIZATION_ROLE ( 'design_owner' ) ;
#102 = AXIS2_PLACEMENT_3D ( 'NONE', #155, #122, #38 ) ;
#103 = AXIS2_PLACEMENT_3D ( 'NONE', #129, #76, #142 ) ;
#104 = LOCAL_TIME ( 15, 48, 27.00000000000000000, #84 ) ;
#105 = DIRECTION ( 'NONE',  ( 0.0000000000000000000, 1.000000000000000000, 0.0000000000000000000 ) ) ;
#106 = COORDINATED_UNIVERSAL_TIME_OFFSET ( 1, 0, .AHEAD. ) ;
#107 = ADVANCED_BREP_SHAPE_REPRESENTATION ( '61376', ( #99, #167, #102 ), #173 ) ;
#108 = CARTESIAN_POINT ( 'NONE',  ( 1.501336975702547217E-13, 7.123858967643751109E-33, 43.00000000000000000 ) ) ;
#109 = DATE_AND_TIME ( #162, #90 ) ;
#110 =( NAMED_UNIT ( * ) PLANE_ANGLE_UNIT ( ) SI_UNIT ( $, .RADIAN. ) );
#111 = DIRECTION ( 'NONE',  ( -3.491481338843133355E-15, 1.224646799147353207E-16, -1.000000000000000000 ) ) ;
#112 = PLANE ( 'NONE',  #216 ) ;
#113 = ORIENTED_EDGE ( 'NONE', *, *, #21, .F. ) ;
#114 = CC_DESIGN_APPROVAL ( #53, ( #170 ) ) ;
#115 = ORIENTED_EDGE ( 'NONE', *, *, #88, .F. ) ;
#116 = PERSON ( 'UNSPECIFIED', 'UNSPECIFIED', 'UNSPECIFIED', ('UNSPECIFIED'), ('UNSPECIFIED'), ('UNSPECIFIED') ) ;
#117 = AXIS2_PLACEMENT_3D ( 'NONE', #64, #93, #92 ) ;
#118 = LOCAL_TIME ( 15, 48, 27.00000000000000000, #136 ) ;
#119 = ADVANCED_FACE ( 'NONE', ( #80, #144 ), #135, .T. ) ;
#120 = DATE_TIME_ROLE ( 'classification_date' ) ;
#121 = VERTEX_POINT ( 'NONE', #140 ) ;
#122 = DIRECTION ( 'NONE',  ( 0.0000000000000000000, 0.0000000000000000000, 1.000000000000000000 ) ) ;
#123 = EDGE_LOOP ( 'NONE', ( #141 ) ) ;
#124 = AXIS2_PLACEMENT_3D ( 'NONE', #174, #175, #42 ) ;
#125 = VERTEX_POINT ( 'NONE', #60 ) ;
#126 = CARTESIAN_POINT ( 'NONE',  ( 2.139851511352079564E-15, 1.019999999999993356, 0.6128778314081143597 ) ) ;
#127 = CARTESIAN_POINT ( 'NONE',  ( 0.0000000000000000000, 0.0000000000000000000, 0.0000000000000000000 ) ) ;
#128 = AXIS2_PLACEMENT_3D ( 'NONE', #22, #6, #214 ) ;
#129 = CARTESIAN_POINT ( 'NONE',  ( 1.501336975702547217E-13, -5.265981236333618470E-15, 43.00000000000000000 ) ) ;
#130 = PERSON_AND_ORGANIZATION_ROLE ( 'creator' ) ;
#131 = ORIENTED_EDGE ( 'NONE', *, *, #205, .T. ) ;
#132 = EDGE_LOOP ( 'NONE', ( #131 ) ) ;
#133 = CC_DESIGN_APPROVAL ( #85, ( #165 ) ) ;
#134 = APPROVAL_DATE_TIME ( #148, #85 ) ;
#135 = CONICAL_SURFACE ( 'NONE', #10, 1.249999999999996891, 0.5235987755982931535 ) ;
#136 = COORDINATED_UNIVERSAL_TIME_OFFSET ( 1, 0, .AHEAD. ) ;
#137 = DIRECTION ( 'NONE',  ( -3.491481338843133355E-15, 1.224646799147353207E-16, -1.000000000000000000 ) ) ;
#138 = AXIS2_PLACEMENT_3D ( 'NONE', #146, #198, #45 ) ;
#139 = APPROVAL_PERSON_ORGANIZATION ( #143, #53, #14 ) ;
#140 = CARTESIAN_POINT ( 'NONE',  ( 1.501336975702547217E-13, 0.9499999999999955147, 43.00000000000000000 ) ) ;
#141 = ORIENTED_EDGE ( 'NONE', *, *, #205, .F. ) ;
#142 = DIRECTION ( 'NONE',  ( 0.0000000000000000000, 1.000000000000000000, 0.0000000000000000000 ) ) ;
#143 = PERSON_AND_ORGANIZATION ( #116, #96 ) ;
#144 = FACE_OUTER_BOUND ( 'NONE', #28, .T. ) ;
#145 = DATE_TIME_ROLE ( 'creation_date' ) ;
#146 = CARTESIAN_POINT ( 'NONE',  ( 2.139851511352079169E-15, -7.505588745023184453E-17, 0.6128778314081142486 ) ) ;
#147 = AXIS2_PLACEMENT_3D ( 'NONE', #157, #137, #105 ) ;
#148 = DATE_AND_TIME ( #187, #11 ) ;
#149 = PERSON_AND_ORGANIZATION ( #116, #96 ) ;
#150 = CC_DESIGN_SECURITY_CLASSIFICATION ( #31, ( #170 ) ) ;
#151 = APPROVAL_STATUS ( 'not_yet_approved' ) ;
#152 = CC_DESIGN_DATE_AND_TIME_ASSIGNMENT ( #35, #145, ( #165 ) ) ;
#153 = DIRECTION ( 'NONE',  ( 0.0000000000000000000, 1.000000000000000000, 0.0000000000000000000 ) ) ;
#154 = CIRCLE ( 'NONE', #163, 1.019999999999993356 ) ;
#155 = CARTESIAN_POINT ( 'NONE',  ( 0.0000000000000000000, 0.0000000000000000000, 0.0000000000000000000 ) ) ;
#156 = PRODUCT_RELATED_PRODUCT_CATEGORY ( 'detail', '', ( #186 ) ) ;
#157 = CARTESIAN_POINT ( 'NONE',  ( 4.189777606611760026E-14, -1.469576158976823947E-15, 12.00000000000000000 ) ) ;
#158 =( NAMED_UNIT ( * ) SI_UNIT ( $, .STERADIAN. ) SOLID_ANGLE_UNIT ( ) );
#159 = ADVANCED_FACE ( 'NONE', ( #41, #190 ), #54, .T. ) ;
#160 = FACE_OUTER_BOUND ( 'NONE', #55, .T. ) ;
#161 = FACE_OUTER_BOUND ( 'NONE', #25, .T. ) ;
#162 = CALENDAR_DATE ( 2021, 7, 10 ) ;
#163 = AXIS2_PLACEMENT_3D ( 'NONE', #7, #202, #203 ) ;
#164 = CARTESIAN_POINT ( 'NONE',  ( 4.328868337280526488E-14, -1.518362619958170657E-15, 12.39837168574085169 ) ) ;
#165 = PRODUCT_DEFINITION ( 'UNKNOWN', '', #170, #168 ) ;
#166 = APPROVAL_STATUS ( 'not_yet_approved' ) ;
#167 = MANIFOLD_SOLID_BREP ( 'Corps-Déplacer/Copier1[2]', #98 ) ;
#168 = DESIGN_CONTEXT ( 'detailed design', #213, 'design' ) ;
#169 = SECURITY_CLASSIFICATION_LEVEL ( 'unclassified' ) ;
#170 = PRODUCT_DEFINITION_FORMATION_WITH_SPECIFIED_SOURCE ( 'ANY', '', #186, .NOT_KNOWN. ) ;
#171 = PERSON_AND_ORGANIZATION_ROLE ( 'design_supplier' ) ;
#172 = VERTEX_POINT ( 'NONE', #59 ) ;
#173 =( GEOMETRIC_REPRESENTATION_CONTEXT ( 3 ) GLOBAL_UNCERTAINTY_ASSIGNED_CONTEXT ( ( #33 ) ) GLOBAL_UNIT_ASSIGNED_CONTEXT ( ( #20, #110, #158 ) ) REPRESENTATION_CONTEXT ( 'NONE', 'WORKASPACE' ) );
#174 = CARTESIAN_POINT ( 'NONE',  ( 1.490862531686017501E-13, -5.229241832359196822E-15, 42.69999999999998863 ) ) ;
#175 = DIRECTION ( 'NONE',  ( -3.491481338843133355E-15, 1.224646799147353207E-16, -1.000000000000000000 ) ) ;
#176 = FACE_OUTER_BOUND ( 'NONE', #49, .T. ) ;
#177 = PRODUCT_DEFINITION_SHAPE ( 'NONE', 'NONE',  #165 ) ;
#178 = ORIENTED_EDGE ( 'NONE', *, *, #210, .F. ) ;
#179 = AXIS2_PLACEMENT_3D ( 'NONE', #217, #192, #196 ) ;
#180 = PERSON_AND_ORGANIZATION ( #116, #96 ) ;
#181 = DIRECTION ( 'NONE',  ( 0.0000000000000000000, 1.000000000000000000, 0.0000000000000000000 ) ) ;
#182 = CARTESIAN_POINT ( 'NONE',  ( 4.189777606611760026E-14, 7.648774891575410577E-33, 12.00000000000000000 ) ) ;
#183 = PERSON_AND_ORGANIZATION_ROLE ( 'creator' ) ;
#184 = EDGE_LOOP ( 'NONE', ( #178 ) ) ;
#185 = EDGE_LOOP ( 'NONE', ( #220 ) ) ;
#186 = PRODUCT ( '61376', '61376', '', ( #223 ) ) ;
#187 = CALENDAR_DATE ( 2021, 7, 10 ) ;
#188 = EDGE_CURVE ( 'NONE', #72, #72, #79, .T. ) ;
#189 = CIRCLE ( 'NONE', #124, 1.250000000000000666 ) ;
#190 = FACE_BOUND ( 'NONE', #185, .T. ) ;
#191 = ADVANCED_FACE ( 'NONE', ( #176 ), #58, .T. ) ;
#192 = DIRECTION ( 'NONE',  ( 3.491481338843133355E-15, -1.224646799147353207E-16, 1.000000000000000000 ) ) ;
#193 = ORIENTED_EDGE ( 'NONE', *, *, #89, .F. ) ;
#194 = AXIS2_PLACEMENT_3D ( 'NONE', #108, #44, #37 ) ;
#195 = DIRECTION ( 'NONE',  ( 0.0000000000000000000, -1.000000000000000000, 0.0000000000000000000 ) ) ;
#196 = DIRECTION ( 'NONE',  ( -4.275831445896958607E-31, -1.000000000000000000, -1.224646799147353207E-16 ) ) ;
#197 = APPROVAL_DATE_TIME ( #109, #53 ) ;
#198 = DIRECTION ( 'NONE',  ( 3.491481338843133355E-15, -1.224646799147353207E-16, 1.000000000000000000 ) ) ;
#199 = FACE_OUTER_BOUND ( 'NONE', #75, .T. ) ;
#200 = APPLICATION_CONTEXT ( 'configuration controlled 3d designs of mechanical parts and assemblies' ) ;
#201 = SHAPE_DEFINITION_REPRESENTATION ( #177, #107 ) ;
#202 = DIRECTION ( 'NONE',  ( -3.491481338843133355E-15, 1.224646799147353207E-16, -1.000000000000000000 ) ) ;
#203 = DIRECTION ( 'NONE',  ( 3.776333224288722214E-31, 1.000000000000000000, 1.062943306358344566E-16 ) ) ;
#204 = APPROVAL_DATE_TIME ( #65, #43 ) ;
#205 = EDGE_CURVE ( 'NONE', #125, #125, #87, .T. ) ;
#206 = APPROVAL_ROLE ( '' ) ;
#207 = PERSON_AND_ORGANIZATION ( #116, #96 ) ;
#208 = CONICAL_SURFACE ( 'NONE', #138, 1.019999999999993356, 1.029744258676649649 ) ;
#209 = LOCAL_TIME ( 15, 48, 27.00000000000000000, #36 ) ;
#210 = EDGE_CURVE ( 'NONE', #73, #73, #189, .T. ) ;
#211 = ADVANCED_FACE ( 'NONE', ( #3 ), #74, .F. ) ;
#212 = ORIENTED_EDGE ( 'NONE', *, *, #188, .F. ) ;
#213 = APPLICATION_CONTEXT ( 'configuration controlled 3d designs of mechanical parts and assemblies' ) ;
#214 = DIRECTION ( 'NONE',  ( 0.0000000000000000000, 1.000000000000000000, 0.0000000000000000000 ) ) ;
#215 = CARTESIAN_POINT ( 'NONE',  ( 4.328868337280526488E-14, -1.518362619958170657E-15, 12.39837168574085169 ) ) ;
#216 = AXIS2_PLACEMENT_3D ( 'NONE', #182, #29, #9 ) ;
#217 = CARTESIAN_POINT ( 'NONE',  ( 4.189777606611760026E-14, 7.648774891575410577E-33, 12.00000000000000000 ) ) ;
#218 = FACE_OUTER_BOUND ( 'NONE', #132, .T. ) ;
#219 = CC_DESIGN_APPROVAL ( #43, ( #31 ) ) ;
#220 = ORIENTED_EDGE ( 'NONE', *, *, #89, .T. ) ;
#221 = FACE_OUTER_BOUND ( 'NONE', #94, .T. ) ;
#222 = CLOSED_SHELL ( 'NONE', ( #95, #119, #17, #159, #211 ) ) ;
#223 = MECHANICAL_CONTEXT ( 'NONE', #200, 'mechanical' ) ;
ENDSEC;
END-ISO-10303-21;
