ISO-10303-21;
HEADER;
FILE_DESCRIPTION (( 'STEP AP203' ),
    '1' );
FILE_NAME ('61375.step',
    '2021-10-08T05:16:07',
    ( '' ),
    ( '' ),
    'SwSTEP 2.0',
    'SolidWorks 2019',
    '' );
FILE_SCHEMA (( 'CONFIG_CONTROL_DESIGN' ));
ENDSEC;

DATA;
#1 = DIRECTION ( 'NONE',  ( -3.794935851009356134E-31, -1.000000000000000000, -1.068179480281292026E-16 ) ) ;
#2 = PERSON_AND_ORGANIZATION_ROLE ( 'design_owner' ) ;
#3 = AXIS2_PLACEMENT_3D ( 'NONE', #207, #189, #92 ) ;
#4 = CC_DESIGN_PERSON_AND_ORGANIZATION_ASSIGNMENT ( #177, #106, ( #62 ) ) ;
#5 = APPLICATION_CONTEXT ( 'configuration controlled 3d designs of mechanical parts and assemblies' ) ;
#6 = CIRCLE ( 'NONE', #214, 1.249999999999996891 ) ;
#7 = ORIENTED_EDGE ( 'NONE', *, *, #196, .F. ) ;
#8 = CALENDAR_DATE ( 2021, 8, 10 ) ;
#9 = ORIENTED_EDGE ( 'NONE', *, *, #197, .F. ) ;
#10 = PERSON_AND_ORGANIZATION ( #97, #153 ) ;
#11 = DIRECTION ( 'NONE',  ( -3.491481338843133355E-15, 1.224646799147353207E-16, -1.000000000000000000 ) ) ;
#12 = CIRCLE ( 'NONE', #147, 0.9500000000000008438 ) ;
#13 = APPROVAL_STATUS ( 'not_yet_approved' ) ;
#14 = FACE_OUTER_BOUND ( 'NONE', #171, .T. ) ;
#15 = DIRECTION ( 'NONE',  ( -4.275831445896958607E-31, -1.000000000000000000, -1.224646799147353207E-16 ) ) ;
#16 = CALENDAR_DATE ( 2021, 8, 10 ) ;
#17 = DIRECTION ( 'NONE',  ( -3.491481338843133355E-15, 1.224646799147353207E-16, -1.000000000000000000 ) ) ;
#18 = EDGE_CURVE ( 'NONE', #85, #85, #25, .T. ) ;
#19 = FACE_BOUND ( 'NONE', #132, .T. ) ;
#20 = DIRECTION ( 'NONE',  ( 0.0000000000000000000, 1.000000000000000000, 0.0000000000000000000 ) ) ;
#21 = CARTESIAN_POINT ( 'NONE',  ( 1.501336975702547217E-13, -5.265981236333618470E-15, 43.00000000000000000 ) ) ;
#22 = LOCAL_TIME ( 7, 16, 7.000000000000000000, #120 ) ;
#23 = FACE_OUTER_BOUND ( 'NONE', #202, .T. ) ;
#24 = CARTESIAN_POINT ( 'NONE',  ( 0.0000000000000000000, 0.0000000000000000000, 0.0000000000000000000 ) ) ;
#25 = CIRCLE ( 'NONE', #44, 1.014999999999993907 ) ;
#26 =( GEOMETRIC_REPRESENTATION_CONTEXT ( 3 ) GLOBAL_UNCERTAINTY_ASSIGNED_CONTEXT ( ( #46 ) ) GLOBAL_UNIT_ASSIGNED_CONTEXT ( ( #139, #221, #107 ) ) REPRESENTATION_CONTEXT ( 'NONE', 'WORKASPACE' ) );
#27 = PLANE ( 'NONE',  #165 ) ;
#28 = DATE_AND_TIME ( #215, #222 ) ;
#29 = DIRECTION ( 'NONE',  ( 0.0000000000000000000, 1.000000000000000000, 0.0000000000000000000 ) ) ;
#30 = CONICAL_SURFACE ( 'NONE', #163, 1.014999999999993463, 1.029744258676649649 ) ;
#31 = PERSON_AND_ORGANIZATION_ROLE ( 'classification_officer' ) ;
#32 = ORIENTED_EDGE ( 'NONE', *, *, #18, .F. ) ;
#33 = ADVANCED_FACE ( 'NONE', ( #14 ), #27, .T. ) ;
#34 = VERTEX_POINT ( 'NONE', #127 ) ;
#35 = CARTESIAN_POINT ( 'NONE',  ( 1.501336975702547217E-13, 0.9499999999999955147, 43.00000000000000000 ) ) ;
#36 = AXIS2_PLACEMENT_3D ( 'NONE', #72, #17, #20 ) ;
#37 = DIRECTION ( 'NONE',  ( -3.491481338843133355E-15, 1.224646799147353207E-16, -1.000000000000000000 ) ) ;
#38 = CYLINDRICAL_SURFACE ( 'NONE', #93, 1.249999999999998890 ) ;
#39 = MANIFOLD_SOLID_BREP ( 'Corps-Déplacer/Copier1[1]', #131 ) ;
#40 = PRODUCT_DEFINITION ( 'UNKNOWN', '', #62, #164 ) ;
#41 = APPLICATION_PROTOCOL_DEFINITION ( 'international standard', 'config_control_design', 1994, #108 ) ;
#42 = DIRECTION ( 'NONE',  ( 1.000000000000000000, 0.0000000000000000000, 0.0000000000000000000 ) ) ;
#43 = ADVANCED_FACE ( 'NONE', ( #100, #217 ), #68, .T. ) ;
#44 = AXIS2_PLACEMENT_3D ( 'NONE', #151, #49, #29 ) ;
#45 = MANIFOLD_SOLID_BREP ( 'Corps-Déplacer/Copier1[2]', #69 ) ;
#46 = UNCERTAINTY_MEASURE_WITH_UNIT (LENGTH_MEASURE( 1.000000000000000082E-05 ), #139, 'distance_accuracy_value', 'NONE');
#47 = EDGE_LOOP ( 'NONE', ( #122 ) ) ;
#48 = APPROVAL ( #13, 'UNSPECIFIED' ) ;
#49 = DIRECTION ( 'NONE',  ( -3.491481338843133355E-15, 1.224646799147353207E-16, -1.000000000000000000 ) ) ;
#50 = APPROVAL_DATE_TIME ( #172, #48 ) ;
#51 = PERSON_AND_ORGANIZATION ( #97, #153 ) ;
#52 = DIRECTION ( 'NONE',  ( -3.491481338843133355E-15, 1.224646799147353207E-16, -1.000000000000000000 ) ) ;
#53 = CC_DESIGN_APPROVAL ( #48, ( #75 ) ) ;
#54 = CALENDAR_DATE ( 2021, 8, 10 ) ;
#55 = EDGE_LOOP ( 'NONE', ( #198 ) ) ;
#56 = VERTEX_POINT ( 'NONE', #35 ) ;
#57 = FACE_OUTER_BOUND ( 'NONE', #55, .T. ) ;
#58 = CARTESIAN_POINT ( 'NONE',  ( 0.0000000000000000000, 0.0000000000000000000, 0.0000000000000000000 ) ) ;
#59 = ADVANCED_FACE ( 'NONE', ( #168, #124 ), #80, .T. ) ;
#60 = DIRECTION ( 'NONE',  ( 0.0000000000000000000, 1.000000000000000000, 0.0000000000000000000 ) ) ;
#61 = APPROVAL_PERSON_ORGANIZATION ( #212, #87, #63 ) ;
#62 = PRODUCT_DEFINITION_FORMATION_WITH_SPECIFIED_SOURCE ( 'ANY', '', #123, .NOT_KNOWN. ) ;
#63 = APPROVAL_ROLE ( '' ) ;
#64 = CC_DESIGN_SECURITY_CLASSIFICATION ( #75, ( #62 ) ) ;
#65 = ORIENTED_EDGE ( 'NONE', *, *, #78, .T. ) ;
#66 = APPROVAL_DATE_TIME ( #28, #152 ) ;
#67 = DATE_TIME_ROLE ( 'classification_date' ) ;
#68 = CYLINDRICAL_SURFACE ( 'NONE', #184, 1.014999999999993685 ) ;
#69 = CLOSED_SHELL ( 'NONE', ( #178, #43, #33 ) ) ;
#70 = CARTESIAN_POINT ( 'NONE',  ( 4.189777606611760026E-14, 1.014999999999992575, 12.00000000000000000 ) ) ;
#71 = VERTEX_POINT ( 'NONE', #140 ) ;
#72 = CARTESIAN_POINT ( 'NONE',  ( 4.189777606611760026E-14, -1.469576158976823947E-15, 12.00000000000000000 ) ) ;
#73 = EDGE_CURVE ( 'NONE', #223, #223, #193, .T. ) ;
#74 = APPLICATION_PROTOCOL_DEFINITION ( 'international standard', 'config_control_design', 1994, #5 ) ;
#75 = SECURITY_CLASSIFICATION ( '', '', #150 ) ;
#76 = EDGE_LOOP ( 'NONE', ( #65 ) ) ;
#77 = PERSON_AND_ORGANIZATION ( #97, #153 ) ;
#78 = EDGE_CURVE ( 'NONE', #71, #71, #94, .T. ) ;
#79 = ADVANCED_BREP_SHAPE_REPRESENTATION ( '61375', ( #39, #45, #195 ), #26 ) ;
#80 = CONICAL_SURFACE ( 'NONE', #134, 0.9500000000000008438, 0.7853981633974336241 ) ;
#81 = DIRECTION ( 'NONE',  ( 0.0000000000000000000, 1.000000000000000000, 0.0000000000000000000 ) ) ;
#82 = PERSON_AND_ORGANIZATION_ROLE ( 'creator' ) ;
#83 = DIRECTION ( 'NONE',  ( -3.491481338843133355E-15, 1.224646799147353207E-16, -1.000000000000000000 ) ) ;
#84 = EDGE_LOOP ( 'NONE', ( #105 ) ) ;
#85 = VERTEX_POINT ( 'NONE', #220 ) ;
#86 = CARTESIAN_POINT ( 'NONE',  ( 2.129362043159177281E-15, -7.468796643331894411E-17, 0.6098735283129765872 ) ) ;
#87 = APPROVAL ( #185, 'UNSPECIFIED' ) ;
#88 = CARTESIAN_POINT ( 'NONE',  ( 4.331892048816804623E-14, -1.519423195196895701E-15, 12.40703193977869567 ) ) ;
#89 = PLANE ( 'NONE',  #3 ) ;
#90 = AXIS2_PLACEMENT_3D ( 'NONE', #204, #52, #160 ) ;
#91 = ADVANCED_FACE ( 'NONE', ( #23 ), #137, .F. ) ;
#92 = DIRECTION ( 'NONE',  ( 4.275831445896958607E-31, 1.000000000000000000, 1.224646799147353207E-16 ) ) ;
#93 = AXIS2_PLACEMENT_3D ( 'NONE', #58, #111, #154 ) ;
#94 = CIRCLE ( 'NONE', #90, 1.014999999999993463 ) ;
#95 = CARTESIAN_POINT ( 'NONE',  ( 1.501336975702547217E-13, -5.265981236333618470E-15, 43.00000000000000000 ) ) ;
#96 = COORDINATED_UNIVERSAL_TIME_OFFSET ( 1, 0, .AHEAD. ) ;
#97 = PERSON ( 'UNSPECIFIED', 'UNSPECIFIED', 'UNSPECIFIED', ('UNSPECIFIED'), ('UNSPECIFIED'), ('UNSPECIFIED') ) ;
#98 = CARTESIAN_POINT ( 'NONE',  ( 4.189777606611760026E-14, 7.611280897008861127E-33, 12.00000000000000000 ) ) ;
#99 = COORDINATED_UNIVERSAL_TIME_OFFSET ( 1, 0, .AHEAD. ) ;
#100 = FACE_OUTER_BOUND ( 'NONE', #133, .T. ) ;
#101 = AXIS2_PLACEMENT_3D ( 'NONE', #88, #218, #156 ) ;
#102 = EDGE_LOOP ( 'NONE', ( #7 ) ) ;
#103 = APPROVAL_ROLE ( '' ) ;
#104 = ADVANCED_FACE ( 'NONE', ( #159, #174 ), #38, .T. ) ;
#105 = ORIENTED_EDGE ( 'NONE', *, *, #73, .T. ) ;
#106 = PERSON_AND_ORGANIZATION_ROLE ( 'design_supplier' ) ;
#107 =( NAMED_UNIT ( * ) SI_UNIT ( $, .STERADIAN. ) SOLID_ANGLE_UNIT ( ) );
#108 = APPLICATION_CONTEXT ( 'configuration controlled 3d designs of mechanical parts and assemblies' ) ;
#109 = CC_DESIGN_PERSON_AND_ORGANIZATION_ASSIGNMENT ( #10, #31, ( #75 ) ) ;
#110 = DIRECTION ( 'NONE',  ( -4.275831445896958607E-31, -1.000000000000000000, -1.224646799147353207E-16 ) ) ;
#111 = DIRECTION ( 'NONE',  ( -3.491481338843133355E-15, 1.224646799147353207E-16, -1.000000000000000000 ) ) ;
#112 = MECHANICAL_CONTEXT ( 'NONE', #108, 'mechanical' ) ;
#113 = ADVANCED_FACE ( 'NONE', ( #191 ), #89, .F. ) ;
#114 = CC_DESIGN_DATE_AND_TIME_ASSIGNMENT ( #130, #145, ( #40 ) ) ;
#115 = AXIS2_PLACEMENT_3D ( 'NONE', #211, #83, #216 ) ;
#116 = APPROVAL_STATUS ( 'not_yet_approved' ) ;
#117 = DIRECTION ( 'NONE',  ( 3.491481338843133355E-15, -1.224646799147353207E-16, 1.000000000000000000 ) ) ;
#118 = PERSON_AND_ORGANIZATION_ROLE ( 'creator' ) ;
#119 = ORIENTED_EDGE ( 'NONE', *, *, #18, .T. ) ;
#120 = COORDINATED_UNIVERSAL_TIME_OFFSET ( 1, 0, .AHEAD. ) ;
#121 = APPROVAL_PERSON_ORGANIZATION ( #141, #152, #205 ) ;
#122 = ORIENTED_EDGE ( 'NONE', *, *, #196, .T. ) ;
#123 = PRODUCT ( '61375', '61375', '', ( #112 ) ) ;
#124 = FACE_BOUND ( 'NONE', #47, .T. ) ;
#125 = DIRECTION ( 'NONE',  ( -3.491481338843133355E-15, 1.224646799147353207E-16, -1.000000000000000000 ) ) ;
#126 = CARTESIAN_POINT ( 'NONE',  ( 4.331892048816804623E-14, -1.519423195196895701E-15, 12.40703193977869567 ) ) ;
#127 = CARTESIAN_POINT ( 'NONE',  ( 4.331892048816804623E-14, 1.249999999999995559, 12.40703193977869567 ) ) ;
#128 = CC_DESIGN_APPROVAL ( #152, ( #40 ) ) ;
#129 = CC_DESIGN_APPROVAL ( #87, ( #62 ) ) ;
#130 = DATE_AND_TIME ( #167, #158 ) ;
#131 = CLOSED_SHELL ( 'NONE', ( #91, #219, #104, #59, #113 ) ) ;
#132 = EDGE_LOOP ( 'NONE', ( #32 ) ) ;
#133 = EDGE_LOOP ( 'NONE', ( #182 ) ) ;
#134 = AXIS2_PLACEMENT_3D ( 'NONE', #95, #166, #81 ) ;
#135 = DIRECTION ( 'NONE',  ( 4.275831445896959482E-31, 1.000000000000000000, 1.224646799147353454E-16 ) ) ;
#136 = DIRECTION ( 'NONE',  ( 0.0000000000000000000, 1.000000000000000000, 0.0000000000000000000 ) ) ;
#137 = PLANE ( 'NONE',  #138 ) ;
#138 = AXIS2_PLACEMENT_3D ( 'NONE', #175, #208, #110 ) ;
#139 =( LENGTH_UNIT ( ) NAMED_UNIT ( * ) SI_UNIT ( .MILLI., .METRE. ) );
#140 = CARTESIAN_POINT ( 'NONE',  ( 2.129362043159177675E-15, 1.014999999999993463, 0.6098735283129766982 ) ) ;
#141 = PERSON_AND_ORGANIZATION ( #97, #153 ) ;
#142 = CC_DESIGN_PERSON_AND_ORGANIZATION_ASSIGNMENT ( #77, #118, ( #40 ) ) ;
#143 = APPROVAL_PERSON_ORGANIZATION ( #51, #48, #103 ) ;
#144 = CARTESIAN_POINT ( 'NONE',  ( 0.0000000000000000000, 0.0000000000000000000, 0.0000000000000000000 ) ) ;
#145 = DATE_TIME_ROLE ( 'creation_date' ) ;
#146 = DATE_AND_TIME ( #8, #22 ) ;
#147 = AXIS2_PLACEMENT_3D ( 'NONE', #21, #37, #60 ) ;
#148 = PRODUCT_RELATED_PRODUCT_CATEGORY ( 'detail', '', ( #123 ) ) ;
#149 = ORIENTED_EDGE ( 'NONE', *, *, #197, .T. ) ;
#150 = SECURITY_CLASSIFICATION_LEVEL ( 'unclassified' ) ;
#151 = CARTESIAN_POINT ( 'NONE',  ( 4.189777606611760026E-14, -1.469576158976823947E-15, 12.00000000000000000 ) ) ;
#152 = APPROVAL ( #116, 'UNSPECIFIED' ) ;
#153 = ORGANIZATION ( 'UNSPECIFIED', 'UNSPECIFIED', '' ) ;
#154 = DIRECTION ( 'NONE',  ( 4.275831445896959482E-31, 1.000000000000000000, 1.224646799147353454E-16 ) ) ;
#155 = PRODUCT_DEFINITION_SHAPE ( 'NONE', 'NONE',  #40 ) ;
#156 = DIRECTION ( 'NONE',  ( 0.0000000000000000000, -1.000000000000000000, 0.0000000000000000000 ) ) ;
#157 = DIRECTION ( 'NONE',  ( 3.491481338843133355E-15, -1.224646799147353207E-16, 1.000000000000000000 ) ) ;
#158 = LOCAL_TIME ( 7, 16, 7.000000000000000000, #99 ) ;
#159 = FACE_OUTER_BOUND ( 'NONE', #169, .T. ) ;
#160 = DIRECTION ( 'NONE',  ( 3.794935851009356134E-31, 1.000000000000000000, 1.068179480281292026E-16 ) ) ;
#161 = PERSON_AND_ORGANIZATION ( #97, #153 ) ;
#162 = CC_DESIGN_PERSON_AND_ORGANIZATION_ASSIGNMENT ( #161, #2, ( #123 ) ) ;
#163 = AXIS2_PLACEMENT_3D ( 'NONE', #86, #157, #1 ) ;
#164 = DESIGN_CONTEXT ( 'detailed design', #5, 'design' ) ;
#165 = AXIS2_PLACEMENT_3D ( 'NONE', #98, #117, #15 ) ;
#166 = DIRECTION ( 'NONE',  ( -3.491481338843133355E-15, 1.224646799147353207E-16, -1.000000000000000000 ) ) ;
#167 = CALENDAR_DATE ( 2021, 8, 10 ) ;
#168 = FACE_OUTER_BOUND ( 'NONE', #181, .T. ) ;
#169 = EDGE_LOOP ( 'NONE', ( #200 ) ) ;
#170 = SHAPE_DEFINITION_REPRESENTATION ( #155, #79 ) ;
#171 = EDGE_LOOP ( 'NONE', ( #9 ) ) ;
#172 = DATE_AND_TIME ( #54, #187 ) ;
#173 = FACE_OUTER_BOUND ( 'NONE', #76, .T. ) ;
#174 = FACE_OUTER_BOUND ( 'NONE', #84, .T. ) ;
#175 = CARTESIAN_POINT ( 'NONE',  ( 4.189777606611760026E-14, 7.611280897008861127E-33, 12.00000000000000000 ) ) ;
#176 = LOCAL_TIME ( 7, 16, 7.000000000000000000, #96 ) ;
#177 = PERSON_AND_ORGANIZATION ( #97, #153 ) ;
#178 = ADVANCED_FACE ( 'NONE', ( #173 ), #30, .T. ) ;
#179 = EDGE_LOOP ( 'NONE', ( #149 ) ) ;
#180 = COORDINATED_UNIVERSAL_TIME_OFFSET ( 1, 0, .AHEAD. ) ;
#181 = EDGE_LOOP ( 'NONE', ( #213 ) ) ;
#182 = ORIENTED_EDGE ( 'NONE', *, *, #78, .F. ) ;
#183 = COORDINATED_UNIVERSAL_TIME_OFFSET ( 1, 0, .AHEAD. ) ;
#184 = AXIS2_PLACEMENT_3D ( 'NONE', #144, #11, #135 ) ;
#185 = APPROVAL_STATUS ( 'not_yet_approved' ) ;
#186 = VERTEX_POINT ( 'NONE', #70 ) ;
#187 = LOCAL_TIME ( 7, 16, 7.000000000000000000, #183 ) ;
#188 = CONICAL_SURFACE ( 'NONE', #101, 1.249999999999996891, 0.5235987755982937086 ) ;
#189 = DIRECTION ( 'NONE',  ( -3.491481338843133355E-15, 1.224646799147353207E-16, -1.000000000000000000 ) ) ;
#190 = EDGE_CURVE ( 'NONE', #34, #34, #6, .T. ) ;
#191 = FACE_OUTER_BOUND ( 'NONE', #102, .T. ) ;
#192 = CC_DESIGN_DATE_AND_TIME_ASSIGNMENT ( #146, #67, ( #75 ) ) ;
#193 = CIRCLE ( 'NONE', #115, 1.250000000000000666 ) ;
#194 = DIRECTION ( 'NONE',  ( 0.0000000000000000000, 0.0000000000000000000, 1.000000000000000000 ) ) ;
#195 = AXIS2_PLACEMENT_3D ( 'NONE', #24, #194, #42 ) ;
#196 = EDGE_CURVE ( 'NONE', #56, #56, #12, .T. ) ;
#197 = EDGE_CURVE ( 'NONE', #186, #186, #209, .T. ) ;
#198 = ORIENTED_EDGE ( 'NONE', *, *, #190, .T. ) ;
#199 = APPROVAL_DATE_TIME ( #203, #87 ) ;
#200 = ORIENTED_EDGE ( 'NONE', *, *, #190, .F. ) ;
#201 = PERSON_AND_ORGANIZATION ( #97, #153 ) ;
#202 = EDGE_LOOP ( 'NONE', ( #119 ) ) ;
#203 = DATE_AND_TIME ( #16, #176 ) ;
#204 = CARTESIAN_POINT ( 'NONE',  ( 2.129362043159177281E-15, -7.468796643331894411E-17, 0.6098735283129765872 ) ) ;
#205 = APPROVAL_ROLE ( '' ) ;
#206 = CARTESIAN_POINT ( 'NONE',  ( 1.490862531686017501E-13, 1.249999999999995559, 42.69999999999998863 ) ) ;
#207 = CARTESIAN_POINT ( 'NONE',  ( 1.501336975702547217E-13, 7.123858967643751109E-33, 43.00000000000000000 ) ) ;
#208 = DIRECTION ( 'NONE',  ( 3.491481338843133355E-15, -1.224646799147353207E-16, 1.000000000000000000 ) ) ;
#209 = CIRCLE ( 'NONE', #36, 1.014999999999993907 ) ;
#210 = CC_DESIGN_PERSON_AND_ORGANIZATION_ASSIGNMENT ( #201, #82, ( #62 ) ) ;
#211 = CARTESIAN_POINT ( 'NONE',  ( 1.490862531686017501E-13, -5.229241832359196822E-15, 42.69999999999998863 ) ) ;
#212 = PERSON_AND_ORGANIZATION ( #97, #153 ) ;
#213 = ORIENTED_EDGE ( 'NONE', *, *, #73, .F. ) ;
#214 = AXIS2_PLACEMENT_3D ( 'NONE', #126, #125, #136 ) ;
#215 = CALENDAR_DATE ( 2021, 8, 10 ) ;
#216 = DIRECTION ( 'NONE',  ( 0.0000000000000000000, 1.000000000000000000, 0.0000000000000000000 ) ) ;
#217 = FACE_OUTER_BOUND ( 'NONE', #179, .T. ) ;
#218 = DIRECTION ( 'NONE',  ( 3.491481338843133355E-15, -1.224646799147353207E-16, 1.000000000000000000 ) ) ;
#219 = ADVANCED_FACE ( 'NONE', ( #19, #57 ), #188, .T. ) ;
#220 = CARTESIAN_POINT ( 'NONE',  ( 4.189777606611760026E-14, 1.014999999999992575, 12.00000000000000000 ) ) ;
#221 =( NAMED_UNIT ( * ) PLANE_ANGLE_UNIT ( ) SI_UNIT ( $, .RADIAN. ) );
#222 = LOCAL_TIME ( 7, 16, 7.000000000000000000, #180 ) ;
#223 = VERTEX_POINT ( 'NONE', #206 ) ;
ENDSEC;
END-ISO-10303-21;
