ISO-10303-21;
HEADER;
FILE_DESCRIPTION (( 'STEP AP203' ),
    '1' );
FILE_NAME ('61372.step',
    '2021-10-07T13:48:27',
    ( '' ),
    ( '' ),
    'SwSTEP 2.0',
    'SolidWorks 2019',
    '' );
FILE_SCHEMA (( 'CONFIG_CONTROL_DESIGN' ));
ENDSEC;

DATA;
#1 = VERTEX_POINT ( 'NONE', #104 ) ;
#2 = CARTESIAN_POINT ( 'NONE',  ( 2.066425234001763187E-15, 0.9849999999999934364, 0.5918477097421497302 ) ) ;
#3 = PRODUCT_DEFINITION_FORMATION_WITH_SPECIFIED_SOURCE ( 'ANY', '', #99, .NOT_KNOWN. ) ;
#4 = EDGE_CURVE ( 'NONE', #74, #74, #137, .T. ) ;
#5 = FACE_OUTER_BOUND ( 'NONE', #8, .T. ) ;
#6 = ADVANCED_FACE ( 'NONE', ( #138 ), #80, .T. ) ;
#7 = CIRCLE ( 'NONE', #107, 0.9849999999999952127 ) ;
#8 = EDGE_LOOP ( 'NONE', ( #33 ) ) ;
#9 = CALENDAR_DATE ( 2021, 7, 10 ) ;
#10 = ORIENTED_EDGE ( 'NONE', *, *, #185, .T. ) ;
#11 = EDGE_LOOP ( 'NONE', ( #28 ) ) ;
#12 = CC_DESIGN_APPROVAL ( #52, ( #51 ) ) ;
#13 = DIRECTION ( 'NONE',  ( -3.491481338843133355E-15, 1.224646799147353207E-16, -1.000000000000000000 ) ) ;
#14 = APPROVAL_PERSON_ORGANIZATION ( #57, #200, #54 ) ;
#15 = CARTESIAN_POINT ( 'NONE',  ( 4.189777606611760026E-14, 7.386316929609589054E-33, 12.00000000000000000 ) ) ;
#16 = ADVANCED_FACE ( 'NONE', ( #19 ), #156, .F. ) ;
#17 = DIRECTION ( 'NONE',  ( -3.491481338843133355E-15, 1.224646799147353207E-16, -1.000000000000000000 ) ) ;
#18 = ADVANCED_BREP_SHAPE_REPRESENTATION ( '61372', ( #112, #118, #73 ), #90 ) ;
#19 = FACE_OUTER_BOUND ( 'NONE', #115, .T. ) ;
#20 = APPROVAL_STATUS ( 'not_yet_approved' ) ;
#21 = CC_DESIGN_DATE_AND_TIME_ASSIGNMENT ( #123, #189, ( #169 ) ) ;
#22 =( NAMED_UNIT ( * ) SI_UNIT ( $, .STERADIAN. ) SOLID_ANGLE_UNIT ( ) );
#23 = AXIS2_PLACEMENT_3D ( 'NONE', #188, #155, #135 ) ;
#24 = DIRECTION ( 'NONE',  ( 0.0000000000000000000, 1.000000000000000000, 0.0000000000000000000 ) ) ;
#25 = CARTESIAN_POINT ( 'NONE',  ( 0.0000000000000000000, 0.0000000000000000000, 0.0000000000000000000 ) ) ;
#26 = DATE_AND_TIME ( #141, #35 ) ;
#27 = APPROVAL_PERSON_ORGANIZATION ( #39, #117, #88 ) ;
#28 = ORIENTED_EDGE ( 'NONE', *, *, #192, .T. ) ;
#29 = COORDINATED_UNIVERSAL_TIME_OFFSET ( 1, 0, .AHEAD. ) ;
#30 = DIRECTION ( 'NONE',  ( -3.491481338843133355E-15, 1.224646799147353207E-16, -1.000000000000000000 ) ) ;
#31 = CALENDAR_DATE ( 2021, 7, 10 ) ;
#32 = PERSON_AND_ORGANIZATION_ROLE ( 'design_supplier' ) ;
#33 = ORIENTED_EDGE ( 'NONE', *, *, #4, .F. ) ;
#34 = PLANE ( 'NONE',  #92 ) ;
#35 = LOCAL_TIME ( 15, 48, 27.00000000000000000, #44 ) ;
#36 = DIRECTION ( 'NONE',  ( -3.491481338843133355E-15, 1.224646799147353207E-16, -1.000000000000000000 ) ) ;
#37 = PERSON_AND_ORGANIZATION ( #48, #98 ) ;
#38 = CC_DESIGN_PERSON_AND_ORGANIZATION_ASSIGNMENT ( #129, #32, ( #3 ) ) ;
#39 = PERSON_AND_ORGANIZATION ( #48, #98 ) ;
#40 = DIRECTION ( 'NONE',  ( -3.491481338843133355E-15, 1.224646799147353207E-16, -1.000000000000000000 ) ) ;
#41 = APPLICATION_PROTOCOL_DEFINITION ( 'international standard', 'config_control_design', 1994, #58 ) ;
#42 = CC_DESIGN_SECURITY_CLASSIFICATION ( #51, ( #3 ) ) ;
#43 = VERTEX_POINT ( 'NONE', #2 ) ;
#44 = COORDINATED_UNIVERSAL_TIME_OFFSET ( 1, 0, .AHEAD. ) ;
#45 = PERSON_AND_ORGANIZATION_ROLE ( 'creator' ) ;
#46 = AXIS2_PLACEMENT_3D ( 'NONE', #97, #202, #166 ) ;
#47 = ORIENTED_EDGE ( 'NONE', *, *, #192, .F. ) ;
#48 = PERSON ( 'UNSPECIFIED', 'UNSPECIFIED', 'UNSPECIFIED', ('UNSPECIFIED'), ('UNSPECIFIED'), ('UNSPECIFIED') ) ;
#49 = ORIENTED_EDGE ( 'NONE', *, *, #140, .F. ) ;
#50 = FACE_OUTER_BOUND ( 'NONE', #131, .T. ) ;
#51 = SECURITY_CLASSIFICATION ( '', '', #62 ) ;
#52 = APPROVAL ( #65, 'UNSPECIFIED' ) ;
#53 = DIRECTION ( 'NONE',  ( 4.275831445896958607E-31, 1.000000000000000000, 1.224646799147353207E-16 ) ) ;
#54 = APPROVAL_ROLE ( '' ) ;
#55 = PERSON_AND_ORGANIZATION_ROLE ( 'creator' ) ;
#56 = LOCAL_TIME ( 15, 48, 27.00000000000000000, #157 ) ;
#57 = PERSON_AND_ORGANIZATION ( #48, #98 ) ;
#58 = APPLICATION_CONTEXT ( 'configuration controlled 3d designs of mechanical parts and assemblies' ) ;
#59 = DATE_AND_TIME ( #176, #145 ) ;
#60 = EDGE_CURVE ( 'NONE', #126, #126, #177, .T. ) ;
#61 = CC_DESIGN_APPROVAL ( #117, ( #3 ) ) ;
#62 = SECURITY_CLASSIFICATION_LEVEL ( 'unclassified' ) ;
#63 = EDGE_LOOP ( 'NONE', ( #82 ) ) ;
#64 = EDGE_CURVE ( 'NONE', #190, #190, #164, .T. ) ;
#65 = APPROVAL_STATUS ( 'not_yet_approved' ) ;
#66 = EDGE_LOOP ( 'NONE', ( #162 ) ) ;
#67 = CARTESIAN_POINT ( 'NONE',  ( 0.0000000000000000000, 0.0000000000000000000, 0.0000000000000000000 ) ) ;
#68 = DIRECTION ( 'NONE',  ( 3.491481338843133355E-15, -1.224646799147353207E-16, 1.000000000000000000 ) ) ;
#69 = DESIGN_CONTEXT ( 'detailed design', #58, 'design' ) ;
#70 =( NAMED_UNIT ( * ) PLANE_ANGLE_UNIT ( ) SI_UNIT ( $, .RADIAN. ) );
#71 = ADVANCED_FACE ( 'NONE', ( #5, #212 ), #150, .T. ) ;
#72 = CARTESIAN_POINT ( 'NONE',  ( 0.0000000000000000000, 0.0000000000000000000, 0.0000000000000000000 ) ) ;
#73 = AXIS2_PLACEMENT_3D ( 'NONE', #72, #210, #124 ) ;
#74 = VERTEX_POINT ( 'NONE', #87 ) ;
#75 = MECHANICAL_CONTEXT ( 'NONE', #180, 'mechanical' ) ;
#76 = AXIS2_PLACEMENT_3D ( 'NONE', #219, #103, #206 ) ;
#77 = EDGE_LOOP ( 'NONE', ( #47 ) ) ;
#78 = PRODUCT_RELATED_PRODUCT_CATEGORY ( 'detail', '', ( #99 ) ) ;
#79 = PRODUCT_DEFINITION_SHAPE ( 'NONE', 'NONE',  #169 ) ;
#80 = CONICAL_SURFACE ( 'NONE', #76, 0.9849999999999934364, 1.029744258676649649 ) ;
#81 = PERSON_AND_ORGANIZATION_ROLE ( 'classification_officer' ) ;
#82 = ORIENTED_EDGE ( 'NONE', *, *, #140, .T. ) ;
#83 = CIRCLE ( 'NONE', #208, 0.7999999999999996003 ) ;
#84 = ADVANCED_FACE ( 'NONE', ( #108 ), #34, .F. ) ;
#85 = DIRECTION ( 'NONE',  ( 0.0000000000000000000, 1.000000000000000000, 0.0000000000000000000 ) ) ;
#86 = CC_DESIGN_DATE_AND_TIME_ASSIGNMENT ( #26, #110, ( #51 ) ) ;
#87 = CARTESIAN_POINT ( 'NONE',  ( 4.198848741220594433E-14, 0.9999999999999954481, 12.02598076211353906 ) ) ;
#88 = APPROVAL_ROLE ( '' ) ;
#89 = CARTESIAN_POINT ( 'NONE',  ( 1.326762908760390423E-13, 0.7999999999999949374, 38.00000000000000000 ) ) ;
#90 =( GEOMETRIC_REPRESENTATION_CONTEXT ( 3 ) GLOBAL_UNCERTAINTY_ASSIGNED_CONTEXT ( ( #165 ) ) GLOBAL_UNIT_ASSIGNED_CONTEXT ( ( #125, #70, #22 ) ) REPRESENTATION_CONTEXT ( 'NONE', 'WORKASPACE' ) );
#91 = CARTESIAN_POINT ( 'NONE',  ( 1.319779946082704535E-13, 0.9999999999999947820, 37.79999999999999716 ) ) ;
#92 = AXIS2_PLACEMENT_3D ( 'NONE', #152, #221, #170 ) ;
#93 = DIRECTION ( 'NONE',  ( 0.0000000000000000000, 1.000000000000000000, 0.0000000000000000000 ) ) ;
#94 = PERSON_AND_ORGANIZATION ( #48, #98 ) ;
#95 = APPROVAL_ROLE ( '' ) ;
#96 = CC_DESIGN_PERSON_AND_ORGANIZATION_ASSIGNMENT ( #161, #45, ( #3 ) ) ;
#97 = CARTESIAN_POINT ( 'NONE',  ( 4.198848741220594433E-14, -1.472757884692999277E-15, 12.02598076211353906 ) ) ;
#98 = ORGANIZATION ( 'UNSPECIFIED', 'UNSPECIFIED', '' ) ;
#99 = PRODUCT ( '61372', '61372', '', ( #75 ) ) ;
#100 = CONICAL_SURFACE ( 'NONE', #46, 0.9999999999999970024, 0.5235987755982519642 ) ;
#101 = COORDINATED_UNIVERSAL_TIME_OFFSET ( 1, 0, .AHEAD. ) ;
#102 = CARTESIAN_POINT ( 'NONE',  ( 1.319779946082704535E-13, -4.629164900776995227E-15, 37.79999999999999716 ) ) ;
#103 = DIRECTION ( 'NONE',  ( 3.491481338843133355E-15, -1.224646799147353207E-16, 1.000000000000000000 ) ) ;
#104 = CARTESIAN_POINT ( 'NONE',  ( 4.189777606611760026E-14, 0.9849999999999936584, 12.00000000000000000 ) ) ;
#105 = CARTESIAN_POINT ( 'NONE',  ( 4.189777606611760026E-14, 0.9849999999999936584, 12.00000000000000000 ) ) ;
#106 = APPROVAL_STATUS ( 'not_yet_approved' ) ;
#107 = AXIS2_PLACEMENT_3D ( 'NONE', #175, #17, #24 ) ;
#108 = FACE_OUTER_BOUND ( 'NONE', #11, .T. ) ;
#109 = EDGE_LOOP ( 'NONE', ( #10 ) ) ;
#110 = DATE_TIME_ROLE ( 'classification_date' ) ;
#111 = AXIS2_PLACEMENT_3D ( 'NONE', #15, #68, #220 ) ;
#112 = MANIFOLD_SOLID_BREP ( 'Corps-Déplacer/Copier1[1]', #207 ) ;
#113 = SHAPE_DEFINITION_REPRESENTATION ( #79, #18 ) ;
#114 = LOCAL_TIME ( 15, 48, 27.00000000000000000, #101 ) ;
#115 = EDGE_LOOP ( 'NONE', ( #214 ) ) ;
#116 = CARTESIAN_POINT ( 'NONE',  ( 1.326762908760390423E-13, -4.653657836759941941E-15, 38.00000000000000000 ) ) ;
#117 = APPROVAL ( #20, 'UNSPECIFIED' ) ;
#118 = MANIFOLD_SOLID_BREP ( 'Corps-Déplacer/Copier1[2]', #222 ) ;
#119 = DIRECTION ( 'NONE',  ( -3.491481338843133355E-15, 1.224646799147353207E-16, -1.000000000000000000 ) ) ;
#120 = CIRCLE ( 'NONE', #171, 0.9849999999999934364 ) ;
#121 = ADVANCED_FACE ( 'NONE', ( #201, #50 ), #184, .T. ) ;
#122 = VERTEX_POINT ( 'NONE', #89 ) ;
#123 = DATE_AND_TIME ( #172, #114 ) ;
#124 = DIRECTION ( 'NONE',  ( 1.000000000000000000, 0.0000000000000000000, 0.0000000000000000000 ) ) ;
#125 =( LENGTH_UNIT ( ) NAMED_UNIT ( * ) SI_UNIT ( .MILLI., .METRE. ) );
#126 = VERTEX_POINT ( 'NONE', #105 ) ;
#127 = ORIENTED_EDGE ( 'NONE', *, *, #4, .T. ) ;
#128 = AXIS2_PLACEMENT_3D ( 'NONE', #25, #40, #146 ) ;
#129 = PERSON_AND_ORGANIZATION ( #48, #98 ) ;
#130 = ADVANCED_FACE ( 'NONE', ( #187, #199 ), #203, .T. ) ;
#131 = EDGE_LOOP ( 'NONE', ( #163 ) ) ;
#132 = DIRECTION ( 'NONE',  ( 4.275831445896958607E-31, 1.000000000000000000, 1.224646799147353207E-16 ) ) ;
#133 = FACE_BOUND ( 'NONE', #77, .T. ) ;
#134 = APPLICATION_PROTOCOL_DEFINITION ( 'international standard', 'config_control_design', 1994, #180 ) ;
#135 = DIRECTION ( 'NONE',  ( 0.0000000000000000000, 1.000000000000000000, 0.0000000000000000000 ) ) ;
#136 = DIRECTION ( 'NONE',  ( 0.0000000000000000000, 1.000000000000000000, 0.0000000000000000000 ) ) ;
#137 = CIRCLE ( 'NONE', #216, 0.9999999999999970024 ) ;
#138 = FACE_OUTER_BOUND ( 'NONE', #63, .T. ) ;
#139 = COORDINATED_UNIVERSAL_TIME_OFFSET ( 1, 0, .AHEAD. ) ;
#140 = EDGE_CURVE ( 'NONE', #43, #43, #120, .T. ) ;
#141 = CALENDAR_DATE ( 2021, 7, 10 ) ;
#142 = ORIENTED_EDGE ( 'NONE', *, *, #64, .T. ) ;
#143 = PERSON_AND_ORGANIZATION ( #48, #98 ) ;
#144 = ADVANCED_FACE ( 'NONE', ( #181 ), #149, .T. ) ;
#145 = LOCAL_TIME ( 15, 48, 27.00000000000000000, #139 ) ;
#146 = DIRECTION ( 'NONE',  ( 4.275831445896958607E-31, 1.000000000000000000, 1.224646799147353207E-16 ) ) ;
#147 = EDGE_LOOP ( 'NONE', ( #142 ) ) ;
#148 = ADVANCED_FACE ( 'NONE', ( #133, #182 ), #100, .T. ) ;
#149 = PLANE ( 'NONE',  #111 ) ;
#150 = CYLINDRICAL_SURFACE ( 'NONE', #128, 0.9999999999999983347 ) ;
#151 = DIRECTION ( 'NONE',  ( 3.910517653578169736E-31, 1.000000000000000000, 1.100712865467524474E-16 ) ) ;
#152 = CARTESIAN_POINT ( 'NONE',  ( 4.189777606611760026E-14, 7.386316929609589054E-33, 12.00000000000000000 ) ) ;
#153 = AXIS2_PLACEMENT_3D ( 'NONE', #116, #13, #85 ) ;
#154 = APPROVAL_DATE_TIME ( #59, #200 ) ;
#155 = DIRECTION ( 'NONE',  ( -3.491481338843133355E-15, 1.224646799147353207E-16, -1.000000000000000000 ) ) ;
#156 = PLANE ( 'NONE',  #186 ) ;
#157 = COORDINATED_UNIVERSAL_TIME_OFFSET ( 1, 0, .AHEAD. ) ;
#158 = CC_DESIGN_APPROVAL ( #200, ( #169 ) ) ;
#159 = CARTESIAN_POINT ( 'NONE',  ( 1.326762908760390423E-13, 5.999039130647358587E-33, 38.00000000000000000 ) ) ;
#160 = ORIENTED_EDGE ( 'NONE', *, *, #64, .F. ) ;
#161 = PERSON_AND_ORGANIZATION ( #48, #98 ) ;
#162 = ORIENTED_EDGE ( 'NONE', *, *, #60, .F. ) ;
#163 = ORIENTED_EDGE ( 'NONE', *, *, #60, .T. ) ;
#164 = CIRCLE ( 'NONE', #174, 0.9999999999999993339 ) ;
#165 = UNCERTAINTY_MEASURE_WITH_UNIT (LENGTH_MEASURE( 1.000000000000000082E-05 ), #125, 'distance_accuracy_value', 'NONE');
#166 = DIRECTION ( 'NONE',  ( 0.0000000000000000000, -1.000000000000000000, 0.0000000000000000000 ) ) ;
#167 = APPROVAL_PERSON_ORGANIZATION ( #94, #52, #95 ) ;
#168 = CARTESIAN_POINT ( 'NONE',  ( 2.066425234001762793E-15, -7.248044033184152931E-17, 0.5918477097421496191 ) ) ;
#169 = PRODUCT_DEFINITION ( 'UNKNOWN', '', #3, #69 ) ;
#170 = DIRECTION ( 'NONE',  ( -4.275831445896958607E-31, -1.000000000000000000, -1.224646799147353207E-16 ) ) ;
#171 = AXIS2_PLACEMENT_3D ( 'NONE', #168, #119, #151 ) ;
#172 = CALENDAR_DATE ( 2021, 7, 10 ) ;
#173 = CARTESIAN_POINT ( 'NONE',  ( 1.326762908760390423E-13, -4.653657836759941941E-15, 38.00000000000000000 ) ) ;
#174 = AXIS2_PLACEMENT_3D ( 'NONE', #102, #183, #136 ) ;
#175 = CARTESIAN_POINT ( 'NONE',  ( 4.189777606611760026E-14, -1.469576158976823947E-15, 12.00000000000000000 ) ) ;
#176 = CALENDAR_DATE ( 2021, 7, 10 ) ;
#177 = CIRCLE ( 'NONE', #23, 0.9849999999999952127 ) ;
#178 = DATE_AND_TIME ( #9, #194 ) ;
#179 = CARTESIAN_POINT ( 'NONE',  ( 4.198848741220594433E-14, -1.472757884692999277E-15, 12.02598076211353906 ) ) ;
#180 = APPLICATION_CONTEXT ( 'configuration controlled 3d designs of mechanical parts and assemblies' ) ;
#181 = FACE_OUTER_BOUND ( 'NONE', #66, .T. ) ;
#182 = FACE_OUTER_BOUND ( 'NONE', #193, .T. ) ;
#183 = DIRECTION ( 'NONE',  ( -3.491481338843133355E-15, 1.224646799147353207E-16, -1.000000000000000000 ) ) ;
#184 = CYLINDRICAL_SURFACE ( 'NONE', #217, 0.9849999999999943245 ) ;
#185 = EDGE_CURVE ( 'NONE', #122, #122, #83, .T. ) ;
#186 = AXIS2_PLACEMENT_3D ( 'NONE', #159, #205, #53 ) ;
#187 = FACE_OUTER_BOUND ( 'NONE', #198, .T. ) ;
#188 = CARTESIAN_POINT ( 'NONE',  ( 4.189777606611760026E-14, -1.469576158976823947E-15, 12.00000000000000000 ) ) ;
#189 = DATE_TIME_ROLE ( 'creation_date' ) ;
#190 = VERTEX_POINT ( 'NONE', #91 ) ;
#191 = DIRECTION ( 'NONE',  ( -3.491481338843133355E-15, 1.224646799147353207E-16, -1.000000000000000000 ) ) ;
#192 = EDGE_CURVE ( 'NONE', #1, #1, #7, .T. ) ;
#193 = EDGE_LOOP ( 'NONE', ( #127 ) ) ;
#194 = LOCAL_TIME ( 15, 48, 27.00000000000000000, #29 ) ;
#195 = APPROVAL_DATE_TIME ( #218, #117 ) ;
#196 = APPROVAL_DATE_TIME ( #178, #52 ) ;
#197 = CC_DESIGN_PERSON_AND_ORGANIZATION_ASSIGNMENT ( #143, #81, ( #51 ) ) ;
#198 = EDGE_LOOP ( 'NONE', ( #160 ) ) ;
#199 = FACE_BOUND ( 'NONE', #109, .T. ) ;
#200 = APPROVAL ( #106, 'UNSPECIFIED' ) ;
#201 = FACE_OUTER_BOUND ( 'NONE', #215, .T. ) ;
#202 = DIRECTION ( 'NONE',  ( 3.491481338843133355E-15, -1.224646799147353207E-16, 1.000000000000000000 ) ) ;
#203 = CONICAL_SURFACE ( 'NONE', #153, 0.7999999999999996003, 0.7853981633974507215 ) ;
#204 = CC_DESIGN_PERSON_AND_ORGANIZATION_ASSIGNMENT ( #209, #211, ( #99 ) ) ;
#205 = DIRECTION ( 'NONE',  ( -3.491481338843133355E-15, 1.224646799147353207E-16, -1.000000000000000000 ) ) ;
#206 = DIRECTION ( 'NONE',  ( -3.910517653578169736E-31, -1.000000000000000000, -1.100712865467524474E-16 ) ) ;
#207 = CLOSED_SHELL ( 'NONE', ( #84, #148, #71, #130, #16 ) ) ;
#208 = AXIS2_PLACEMENT_3D ( 'NONE', #173, #191, #223 ) ;
#209 = PERSON_AND_ORGANIZATION ( #48, #98 ) ;
#210 = DIRECTION ( 'NONE',  ( 0.0000000000000000000, 0.0000000000000000000, 1.000000000000000000 ) ) ;
#211 = PERSON_AND_ORGANIZATION_ROLE ( 'design_owner' ) ;
#212 = FACE_OUTER_BOUND ( 'NONE', #147, .T. ) ;
#213 = CC_DESIGN_PERSON_AND_ORGANIZATION_ASSIGNMENT ( #37, #55, ( #169 ) ) ;
#214 = ORIENTED_EDGE ( 'NONE', *, *, #185, .F. ) ;
#215 = EDGE_LOOP ( 'NONE', ( #49 ) ) ;
#216 = AXIS2_PLACEMENT_3D ( 'NONE', #179, #30, #93 ) ;
#217 = AXIS2_PLACEMENT_3D ( 'NONE', #67, #36, #132 ) ;
#218 = DATE_AND_TIME ( #31, #56 ) ;
#219 = CARTESIAN_POINT ( 'NONE',  ( 2.066425234001762793E-15, -7.248044033184152931E-17, 0.5918477097421496191 ) ) ;
#220 = DIRECTION ( 'NONE',  ( -4.275831445896958607E-31, -1.000000000000000000, -1.224646799147353207E-16 ) ) ;
#221 = DIRECTION ( 'NONE',  ( 3.491481338843133355E-15, -1.224646799147353207E-16, 1.000000000000000000 ) ) ;
#222 = CLOSED_SHELL ( 'NONE', ( #6, #121, #144 ) ) ;
#223 = DIRECTION ( 'NONE',  ( 0.0000000000000000000, 1.000000000000000000, 0.0000000000000000000 ) ) ;
ENDSEC;
END-ISO-10303-21;
