ISO-10303-21;
HEADER;
FILE_DESCRIPTION (( 'STEP AP203' ),
    '1' );
FILE_NAME ('61371.step',
    '2021-10-08T05:16:06',
    ( '' ),
    ( '' ),
    'SwSTEP 2.0',
    'SolidWorks 2019',
    '' );
FILE_SCHEMA (( 'CONFIG_CONTROL_DESIGN' ));
ENDSEC;

DATA;
#1 = EDGE_CURVE ( 'NONE', #182, #182, #204, .T. ) ;
#2 = CARTESIAN_POINT ( 'NONE',  ( 4.189777606611760026E-14, 7.386316929609589054E-33, 12.00000000000000000 ) ) ;
#3 = ADVANCED_FACE ( 'NONE', ( #44, #57 ), #133, .T. ) ;
#4 = AXIS2_PLACEMENT_3D ( 'NONE', #28, #23, #117 ) ;
#5 = CC_DESIGN_APPROVAL ( #109, ( #78 ) ) ;
#6 = ADVANCED_BREP_SHAPE_REPRESENTATION ( '61371', ( #111, #36, #56 ), #156 ) ;
#7 = VERTEX_POINT ( 'NONE', #145 ) ;
#8 = FACE_OUTER_BOUND ( 'NONE', #209, .T. ) ;
#9 = DIRECTION ( 'NONE',  ( -3.491481338843133355E-15, 1.224646799147353207E-16, -1.000000000000000000 ) ) ;
#10 = DIRECTION ( 'NONE',  ( 4.275831445896958607E-31, 1.000000000000000000, 1.224646799147353207E-16 ) ) ;
#11 = UNCERTAINTY_MEASURE_WITH_UNIT (LENGTH_MEASURE( 1.000000000000000082E-05 ), #137, 'distance_accuracy_value', 'NONE');
#12 = CARTESIAN_POINT ( 'NONE',  ( 4.189777606611760026E-14, 0.9849999999999936584, 12.00000000000000000 ) ) ;
#13 = PERSON_AND_ORGANIZATION_ROLE ( 'classification_officer' ) ;
#14 = APPROVAL_STATUS ( 'not_yet_approved' ) ;
#15 = AXIS2_PLACEMENT_3D ( 'NONE', #148, #130, #129 ) ;
#16 = ORIENTED_EDGE ( 'NONE', *, *, #65, .F. ) ;
#17 = ORIENTED_EDGE ( 'NONE', *, *, #1, .T. ) ;
#18 = EDGE_LOOP ( 'NONE', ( #92 ) ) ;
#19 = CC_DESIGN_APPROVAL ( #72, ( #174 ) ) ;
#20 = ADVANCED_FACE ( 'NONE', ( #212 ), #80, .F. ) ;
#21 = ORIENTED_EDGE ( 'NONE', *, *, #30, .T. ) ;
#22 = EDGE_LOOP ( 'NONE', ( #17 ) ) ;
#23 = DIRECTION ( 'NONE',  ( 3.491481338843133355E-15, -1.224646799147353207E-16, 1.000000000000000000 ) ) ;
#24 = CLOSED_SHELL ( 'NONE', ( #46, #208, #139, #190, #20 ) ) ;
#25 = DIRECTION ( 'NONE',  ( 0.0000000000000000000, 1.000000000000000000, 0.0000000000000000000 ) ) ;
#26 = CARTESIAN_POINT ( 'NONE',  ( 1.326762908760390423E-13, -4.653657836759941941E-15, 38.00000000000000000 ) ) ;
#27 = DESIGN_CONTEXT ( 'detailed design', #127, 'design' ) ;
#28 = CARTESIAN_POINT ( 'NONE',  ( 4.198848741220594433E-14, -1.472757884692999277E-15, 12.02598076211353906 ) ) ;
#29 = AXIS2_PLACEMENT_3D ( 'NONE', #60, #215, #180 ) ;
#30 = EDGE_CURVE ( 'NONE', #7, #7, #169, .T. ) ;
#31 = PERSON_AND_ORGANIZATION ( #85, #184 ) ;
#32 = DATE_AND_TIME ( #203, #61 ) ;
#33 = VERTEX_POINT ( 'NONE', #217 ) ;
#34 = AXIS2_PLACEMENT_3D ( 'NONE', #64, #45, #216 ) ;
#35 = APPLICATION_PROTOCOL_DEFINITION ( 'international standard', 'config_control_design', 1994, #127 ) ;
#36 = MANIFOLD_SOLID_BREP ( 'Corps-Déplacer/Copier1[2]', #43 ) ;
#37 = AXIS2_PLACEMENT_3D ( 'NONE', #144, #200, #42 ) ;
#38 = ORIENTED_EDGE ( 'NONE', *, *, #79, .T. ) ;
#39 = SHAPE_DEFINITION_REPRESENTATION ( #193, #6 ) ;
#40 = EDGE_LOOP ( 'NONE', ( #194 ) ) ;
#41 = FACE_OUTER_BOUND ( 'NONE', #18, .T. ) ;
#42 = DIRECTION ( 'NONE',  ( 0.0000000000000000000, 1.000000000000000000, 0.0000000000000000000 ) ) ;
#43 = CLOSED_SHELL ( 'NONE', ( #94, #3, #188 ) ) ;
#44 = FACE_OUTER_BOUND ( 'NONE', #40, .T. ) ;
#45 = DIRECTION ( 'NONE',  ( -3.491481338843133355E-15, 1.224646799147353207E-16, -1.000000000000000000 ) ) ;
#46 = ADVANCED_FACE ( 'NONE', ( #114 ), #181, .F. ) ;
#47 = CARTESIAN_POINT ( 'NONE',  ( 2.066425234001762793E-15, -7.248044033184152931E-17, 0.5918477097421496191 ) ) ;
#48 = LOCAL_TIME ( 7, 16, 6.000000000000000000, #187 ) ;
#49 = PERSON_AND_ORGANIZATION_ROLE ( 'design_supplier' ) ;
#50 = CALENDAR_DATE ( 2021, 8, 10 ) ;
#51 = AXIS2_PLACEMENT_3D ( 'NONE', #26, #77, #25 ) ;
#52 = PERSON_AND_ORGANIZATION ( #85, #184 ) ;
#53 = APPROVAL_ROLE ( '' ) ;
#54 = CC_DESIGN_DATE_AND_TIME_ASSIGNMENT ( #106, #55, ( #78 ) ) ;
#55 = DATE_TIME_ROLE ( 'classification_date' ) ;
#56 = AXIS2_PLACEMENT_3D ( 'NONE', #86, #185, #155 ) ;
#57 = FACE_OUTER_BOUND ( 'NONE', #141, .T. ) ;
#58 = PRODUCT_DEFINITION ( 'UNKNOWN', '', #174, #27 ) ;
#59 = DIRECTION ( 'NONE',  ( 0.0000000000000000000, 1.000000000000000000, 0.0000000000000000000 ) ) ;
#60 = CARTESIAN_POINT ( 'NONE',  ( 4.189777606611760026E-14, 7.386316929609589054E-33, 12.00000000000000000 ) ) ;
#61 = LOCAL_TIME ( 7, 16, 6.000000000000000000, #89 ) ;
#62 = DIRECTION ( 'NONE',  ( -3.491481338843133355E-15, 1.224646799147353207E-16, -1.000000000000000000 ) ) ;
#63 = CC_DESIGN_PERSON_AND_ORGANIZATION_ASSIGNMENT ( #120, #13, ( #78 ) ) ;
#64 = CARTESIAN_POINT ( 'NONE',  ( 4.189777606611760026E-14, -1.469576158976823947E-15, 12.00000000000000000 ) ) ;
#65 = EDGE_CURVE ( 'NONE', #220, #220, #223, .T. ) ;
#66 =( NAMED_UNIT ( * ) SI_UNIT ( $, .STERADIAN. ) SOLID_ANGLE_UNIT ( ) );
#67 = COORDINATED_UNIVERSAL_TIME_OFFSET ( 1, 0, .AHEAD. ) ;
#68 = VERTEX_POINT ( 'NONE', #151 ) ;
#69 = COORDINATED_UNIVERSAL_TIME_OFFSET ( 1, 0, .AHEAD. ) ;
#70 = AXIS2_PLACEMENT_3D ( 'NONE', #162, #62, #59 ) ;
#71 = PERSON_AND_ORGANIZATION ( #85, #184 ) ;
#72 = APPROVAL ( #121, 'UNSPECIFIED' ) ;
#73 = APPROVAL_STATUS ( 'not_yet_approved' ) ;
#74 = PERSON_AND_ORGANIZATION ( #85, #184 ) ;
#75 = EDGE_LOOP ( 'NONE', ( #191 ) ) ;
#76 = ORIENTED_EDGE ( 'NONE', *, *, #65, .T. ) ;
#77 = DIRECTION ( 'NONE',  ( -3.491481338843133355E-15, 1.224646799147353207E-16, -1.000000000000000000 ) ) ;
#78 = SECURITY_CLASSIFICATION ( '', '', #101 ) ;
#79 = EDGE_CURVE ( 'NONE', #33, #33, #179, .T. ) ;
#80 = PLANE ( 'NONE',  #131 ) ;
#81 = DIRECTION ( 'NONE',  ( 4.275831445896958607E-31, 1.000000000000000000, 1.224646799147353207E-16 ) ) ;
#82 = FACE_BOUND ( 'NONE', #195, .T. ) ;
#83 = DIRECTION ( 'NONE',  ( 3.491481338843133355E-15, -1.224646799147353207E-16, 1.000000000000000000 ) ) ;
#84 = MECHANICAL_CONTEXT ( 'NONE', #116, 'mechanical' ) ;
#85 = PERSON ( 'UNSPECIFIED', 'UNSPECIFIED', 'UNSPECIFIED', ('UNSPECIFIED'), ('UNSPECIFIED'), ('UNSPECIFIED') ) ;
#86 = CARTESIAN_POINT ( 'NONE',  ( 0.0000000000000000000, 0.0000000000000000000, 0.0000000000000000000 ) ) ;
#87 = CIRCLE ( 'NONE', #70, 0.9849999999999952127 ) ;
#88 = CC_DESIGN_SECURITY_CLASSIFICATION ( #78, ( #174 ) ) ;
#89 = COORDINATED_UNIVERSAL_TIME_OFFSET ( 1, 0, .AHEAD. ) ;
#90 = PERSON_AND_ORGANIZATION_ROLE ( 'design_owner' ) ;
#91 = APPROVAL_DATE_TIME ( #219, #157 ) ;
#92 = ORIENTED_EDGE ( 'NONE', *, *, #30, .F. ) ;
#93 = ORIENTED_EDGE ( 'NONE', *, *, #178, .T. ) ;
#94 = ADVANCED_FACE ( 'NONE', ( #211 ), #214, .T. ) ;
#95 = APPROVAL_PERSON_ORGANIZATION ( #138, #72, #53 ) ;
#96 = EDGE_LOOP ( 'NONE', ( #21 ) ) ;
#97 = CARTESIAN_POINT ( 'NONE',  ( 4.198848741220594433E-14, 0.9999999999999954481, 12.02598076211353906 ) ) ;
#98 = FACE_OUTER_BOUND ( 'NONE', #96, .T. ) ;
#99 = FACE_BOUND ( 'NONE', #126, .T. ) ;
#100 = CARTESIAN_POINT ( 'NONE',  ( 0.0000000000000000000, 0.0000000000000000000, 0.0000000000000000000 ) ) ;
#101 = SECURITY_CLASSIFICATION_LEVEL ( 'unclassified' ) ;
#102 = CARTESIAN_POINT ( 'NONE',  ( 1.326762908760390423E-13, 0.7999999999999954925, 38.00000000000000000 ) ) ;
#103 = AXIS2_PLACEMENT_3D ( 'NONE', #100, #149, #81 ) ;
#104 = CALENDAR_DATE ( 2021, 8, 10 ) ;
#105 = PERSON_AND_ORGANIZATION_ROLE ( 'creator' ) ;
#106 = DATE_AND_TIME ( #153, #202 ) ;
#107 = COORDINATED_UNIVERSAL_TIME_OFFSET ( 1, 0, .AHEAD. ) ;
#108 = EDGE_LOOP ( 'NONE', ( #110 ) ) ;
#109 = APPROVAL ( #73, 'UNSPECIFIED' ) ;
#110 = ORIENTED_EDGE ( 'NONE', *, *, #1, .F. ) ;
#111 = MANIFOLD_SOLID_BREP ( 'Corps-Déplacer/Copier1[1]', #24 ) ;
#112 = ORIENTED_EDGE ( 'NONE', *, *, #79, .F. ) ;
#113 = DIRECTION ( 'NONE',  ( 0.0000000000000000000, 1.000000000000000000, 0.0000000000000000000 ) ) ;
#114 = FACE_OUTER_BOUND ( 'NONE', #159, .T. ) ;
#115 = DIRECTION ( 'NONE',  ( -3.491481338843133355E-15, 1.224646799147353207E-16, -1.000000000000000000 ) ) ;
#116 = APPLICATION_CONTEXT ( 'configuration controlled 3d designs of mechanical parts and assemblies' ) ;
#117 = DIRECTION ( 'NONE',  ( 0.0000000000000000000, -1.000000000000000000, 0.0000000000000000000 ) ) ;
#118 = CYLINDRICAL_SURFACE ( 'NONE', #172, 0.9999999999999986677 ) ;
#119 = PRODUCT_RELATED_PRODUCT_CATEGORY ( 'detail', '', ( #158 ) ) ;
#120 = PERSON_AND_ORGANIZATION ( #85, #184 ) ;
#121 = APPROVAL_STATUS ( 'not_yet_approved' ) ;
#122 = CC_DESIGN_PERSON_AND_ORGANIZATION_ASSIGNMENT ( #52, #90, ( #158 ) ) ;
#123 = LOCAL_TIME ( 7, 16, 6.000000000000000000, #69 ) ;
#124 = PERSON_AND_ORGANIZATION ( #85, #184 ) ;
#125 = APPROVAL_DATE_TIME ( #171, #72 ) ;
#126 = EDGE_LOOP ( 'NONE', ( #76 ) ) ;
#127 = APPLICATION_CONTEXT ( 'configuration controlled 3d designs of mechanical parts and assemblies' ) ;
#128 = DIRECTION ( 'NONE',  ( -3.910517653578169736E-31, -1.000000000000000000, -1.100712865467524474E-16 ) ) ;
#129 = DIRECTION ( 'NONE',  ( 3.910517653578169736E-31, 1.000000000000000000, 1.100712865467524474E-16 ) ) ;
#130 = DIRECTION ( 'NONE',  ( -3.491481338843133355E-15, 1.224646799147353207E-16, -1.000000000000000000 ) ) ;
#131 = AXIS2_PLACEMENT_3D ( 'NONE', #168, #115, #10 ) ;
#132 = FACE_OUTER_BOUND ( 'NONE', #22, .T. ) ;
#133 = CYLINDRICAL_SURFACE ( 'NONE', #103, 0.9849999999999943245 ) ;
#134 = CC_DESIGN_PERSON_AND_ORGANIZATION_ASSIGNMENT ( #173, #49, ( #174 ) ) ;
#135 = APPLICATION_PROTOCOL_DEFINITION ( 'international standard', 'config_control_design', 1994, #116 ) ;
#136 = APPROVAL_PERSON_ORGANIZATION ( #74, #109, #142 ) ;
#137 =( LENGTH_UNIT ( ) NAMED_UNIT ( * ) SI_UNIT ( .MILLI., .METRE. ) );
#138 = PERSON_AND_ORGANIZATION ( #85, #184 ) ;
#139 = ADVANCED_FACE ( 'NONE', ( #177, #98 ), #118, .T. ) ;
#140 = APPROVAL_PERSON_ORGANIZATION ( #124, #157, #205 ) ;
#141 = EDGE_LOOP ( 'NONE', ( #93 ) ) ;
#142 = APPROVAL_ROLE ( '' ) ;
#143 = CONICAL_SURFACE ( 'NONE', #160, 0.8000000000000001554, 0.7853981633974516097 ) ;
#144 = CARTESIAN_POINT ( 'NONE',  ( 4.198848741220594433E-14, -1.472757884692999277E-15, 12.02598076211353906 ) ) ;
#145 = CARTESIAN_POINT ( 'NONE',  ( 1.319779946082704535E-13, 0.9999999999999956701, 37.79999999999999716 ) ) ;
#146 = CC_DESIGN_PERSON_AND_ORGANIZATION_ASSIGNMENT ( #71, #105, ( #58 ) ) ;
#147 = DIRECTION ( 'NONE',  ( -3.491481338843133355E-15, 1.224646799147353207E-16, -1.000000000000000000 ) ) ;
#148 = CARTESIAN_POINT ( 'NONE',  ( 2.066425234001762793E-15, -7.248044033184152931E-17, 0.5918477097421496191 ) ) ;
#149 = DIRECTION ( 'NONE',  ( -3.491481338843133355E-15, 1.224646799147353207E-16, -1.000000000000000000 ) ) ;
#150 = CC_DESIGN_PERSON_AND_ORGANIZATION_ASSIGNMENT ( #31, #201, ( #174 ) ) ;
#151 = CARTESIAN_POINT ( 'NONE',  ( 2.066425234001763187E-15, 0.9849999999999934364, 0.5918477097421497302 ) ) ;
#152 = CIRCLE ( 'NONE', #15, 0.9849999999999934364 ) ;
#153 = CALENDAR_DATE ( 2021, 8, 10 ) ;
#154 = EDGE_CURVE ( 'NONE', #68, #68, #152, .T. ) ;
#155 = DIRECTION ( 'NONE',  ( 1.000000000000000000, 0.0000000000000000000, 0.0000000000000000000 ) ) ;
#156 =( GEOMETRIC_REPRESENTATION_CONTEXT ( 3 ) GLOBAL_UNCERTAINTY_ASSIGNED_CONTEXT ( ( #11 ) ) GLOBAL_UNIT_ASSIGNED_CONTEXT ( ( #137, #170, #66 ) ) REPRESENTATION_CONTEXT ( 'NONE', 'WORKASPACE' ) );
#157 = APPROVAL ( #14, 'UNSPECIFIED' ) ;
#158 = PRODUCT ( '61371', '61371', '', ( #84 ) ) ;
#159 = EDGE_LOOP ( 'NONE', ( #38 ) ) ;
#160 = AXIS2_PLACEMENT_3D ( 'NONE', #167, #9, #113 ) ;
#161 = EDGE_LOOP ( 'NONE', ( #16 ) ) ;
#162 = CARTESIAN_POINT ( 'NONE',  ( 4.189777606611760026E-14, -1.469576158976823947E-15, 12.00000000000000000 ) ) ;
#163 = AXIS2_PLACEMENT_3D ( 'NONE', #213, #183, #199 ) ;
#164 = DIRECTION ( 'NONE',  ( 4.275831445896959482E-31, 1.000000000000000000, 1.224646799147353454E-16 ) ) ;
#165 = CC_DESIGN_DATE_AND_TIME_ASSIGNMENT ( #32, #186, ( #58 ) ) ;
#166 = CARTESIAN_POINT ( 'NONE',  ( 0.0000000000000000000, 0.0000000000000000000, 0.0000000000000000000 ) ) ;
#167 = CARTESIAN_POINT ( 'NONE',  ( 1.326762908760390423E-13, -4.653657836759941941E-15, 38.00000000000000000 ) ) ;
#168 = CARTESIAN_POINT ( 'NONE',  ( 1.326762908760390423E-13, 5.999039130647361324E-33, 38.00000000000000000 ) ) ;
#169 = CIRCLE ( 'NONE', #163, 1.000000000000000222 ) ;
#170 =( NAMED_UNIT ( * ) PLANE_ANGLE_UNIT ( ) SI_UNIT ( $, .RADIAN. ) );
#171 = DATE_AND_TIME ( #104, #123 ) ;
#172 = AXIS2_PLACEMENT_3D ( 'NONE', #166, #147, #164 ) ;
#173 = PERSON_AND_ORGANIZATION ( #85, #184 ) ;
#174 = PRODUCT_DEFINITION_FORMATION_WITH_SPECIFIED_SOURCE ( 'ANY', '', #158, .NOT_KNOWN. ) ;
#175 = CONICAL_SURFACE ( 'NONE', #4, 0.9999999999999970024, 0.5235987755982519642 ) ;
#176 = ORIENTED_EDGE ( 'NONE', *, *, #178, .F. ) ;
#177 = FACE_OUTER_BOUND ( 'NONE', #108, .T. ) ;
#178 = EDGE_CURVE ( 'NONE', #221, #221, #87, .T. ) ;
#179 = CIRCLE ( 'NONE', #34, 0.9849999999999952127 ) ;
#180 = DIRECTION ( 'NONE',  ( -4.275831445896958607E-31, -1.000000000000000000, -1.224646799147353207E-16 ) ) ;
#181 = PLANE ( 'NONE',  #29 ) ;
#182 = VERTEX_POINT ( 'NONE', #97 ) ;
#183 = DIRECTION ( 'NONE',  ( -3.491481338843133355E-15, 1.224646799147353207E-16, -1.000000000000000000 ) ) ;
#184 = ORGANIZATION ( 'UNSPECIFIED', 'UNSPECIFIED', '' ) ;
#185 = DIRECTION ( 'NONE',  ( 0.0000000000000000000, 0.0000000000000000000, 1.000000000000000000 ) ) ;
#186 = DATE_TIME_ROLE ( 'creation_date' ) ;
#187 = COORDINATED_UNIVERSAL_TIME_OFFSET ( 1, 0, .AHEAD. ) ;
#188 = ADVANCED_FACE ( 'NONE', ( #8 ), #197, .T. ) ;
#189 = APPROVAL_DATE_TIME ( #206, #109 ) ;
#190 = ADVANCED_FACE ( 'NONE', ( #41, #99 ), #143, .T. ) ;
#191 = ORIENTED_EDGE ( 'NONE', *, *, #154, .T. ) ;
#192 = LOCAL_TIME ( 7, 16, 6.000000000000000000, #107 ) ;
#193 = PRODUCT_DEFINITION_SHAPE ( 'NONE', 'NONE',  #58 ) ;
#194 = ORIENTED_EDGE ( 'NONE', *, *, #154, .F. ) ;
#195 = EDGE_LOOP ( 'NONE', ( #112 ) ) ;
#196 = DIRECTION ( 'NONE',  ( 3.491481338843133355E-15, -1.224646799147353207E-16, 1.000000000000000000 ) ) ;
#197 = PLANE ( 'NONE',  #207 ) ;
#198 = DIRECTION ( 'NONE',  ( -4.275831445896958607E-31, -1.000000000000000000, -1.224646799147353207E-16 ) ) ;
#199 = DIRECTION ( 'NONE',  ( 0.0000000000000000000, 1.000000000000000000, 0.0000000000000000000 ) ) ;
#200 = DIRECTION ( 'NONE',  ( -3.491481338843133355E-15, 1.224646799147353207E-16, -1.000000000000000000 ) ) ;
#201 = PERSON_AND_ORGANIZATION_ROLE ( 'creator' ) ;
#202 = LOCAL_TIME ( 7, 16, 6.000000000000000000, #67 ) ;
#203 = CALENDAR_DATE ( 2021, 8, 10 ) ;
#204 = CIRCLE ( 'NONE', #37, 0.9999999999999970024 ) ;
#205 = APPROVAL_ROLE ( '' ) ;
#206 = DATE_AND_TIME ( #222, #192 ) ;
#207 = AXIS2_PLACEMENT_3D ( 'NONE', #2, #196, #198 ) ;
#208 = ADVANCED_FACE ( 'NONE', ( #82, #132 ), #175, .T. ) ;
#209 = EDGE_LOOP ( 'NONE', ( #176 ) ) ;
#210 = CC_DESIGN_APPROVAL ( #157, ( #58 ) ) ;
#211 = FACE_OUTER_BOUND ( 'NONE', #75, .T. ) ;
#212 = FACE_OUTER_BOUND ( 'NONE', #161, .T. ) ;
#213 = CARTESIAN_POINT ( 'NONE',  ( 1.319779946082704535E-13, -4.629164900776995227E-15, 37.79999999999999716 ) ) ;
#214 = CONICAL_SURFACE ( 'NONE', #218, 0.9849999999999934364, 1.029744258676649649 ) ;
#215 = DIRECTION ( 'NONE',  ( 3.491481338843133355E-15, -1.224646799147353207E-16, 1.000000000000000000 ) ) ;
#216 = DIRECTION ( 'NONE',  ( 0.0000000000000000000, 1.000000000000000000, 0.0000000000000000000 ) ) ;
#217 = CARTESIAN_POINT ( 'NONE',  ( 4.189777606611760026E-14, 0.9849999999999936584, 12.00000000000000000 ) ) ;
#218 = AXIS2_PLACEMENT_3D ( 'NONE', #47, #83, #128 ) ;
#219 = DATE_AND_TIME ( #50, #48 ) ;
#220 = VERTEX_POINT ( 'NONE', #102 ) ;
#221 = VERTEX_POINT ( 'NONE', #12 ) ;
#222 = CALENDAR_DATE ( 2021, 8, 10 ) ;
#223 = CIRCLE ( 'NONE', #51, 0.8000000000000001554 ) ;
ENDSEC;
END-ISO-10303-21;
