ISO-10303-21;
HEADER;
FILE_DESCRIPTION (( 'STEP AP203' ),
    '1' );
FILE_NAME ('61370.step',
    '2021-10-08T05:16:05',
    ( '' ),
    ( '' ),
    'SwSTEP 2.0',
    'SolidWorks 2019',
    '' );
FILE_SCHEMA (( 'CONFIG_CONTROL_DESIGN' ));
ENDSEC;

DATA;
#1 = DATE_AND_TIME ( #85, #5 ) ;
#2 = EDGE_CURVE ( 'NONE', #56, #56, #70, .T. ) ;
#3 = DATE_AND_TIME ( #124, #116 ) ;
#4 = PRODUCT_DEFINITION_FORMATION_WITH_SPECIFIED_SOURCE ( 'ANY', '', #185, .NOT_KNOWN. ) ;
#5 = LOCAL_TIME ( 7, 16, 5.000000000000000000, #19 ) ;
#6 = SECURITY_CLASSIFICATION ( '', '', #42 ) ;
#7 = ORIENTED_EDGE ( 'NONE', *, *, #211, .T. ) ;
#8 = CALENDAR_DATE ( 2021, 8, 10 ) ;
#9 = APPROVAL ( #210, 'UNSPECIFIED' ) ;
#10 = FACE_OUTER_BOUND ( 'NONE', #111, .T. ) ;
#11 = CONICAL_SURFACE ( 'NONE', #123, 0.9999999999999970024, 0.5235987755983113612 ) ;
#12 = EDGE_LOOP ( 'NONE', ( #62 ) ) ;
#13 = DIRECTION ( 'NONE',  ( 0.0000000000000000000, -1.000000000000000000, 0.0000000000000000000 ) ) ;
#14 = ORIENTED_EDGE ( 'NONE', *, *, #219, .T. ) ;
#15 = AXIS2_PLACEMENT_3D ( 'NONE', #220, #217, #158 ) ;
#16 = CYLINDRICAL_SURFACE ( 'NONE', #15, 0.9799999999999938760 ) ;
#17 = CC_DESIGN_DATE_AND_TIME_ASSIGNMENT ( #91, #138, ( #6 ) ) ;
#18 = VERTEX_POINT ( 'NONE', #133 ) ;
#19 = COORDINATED_UNIVERSAL_TIME_OFFSET ( 1, 0, .AHEAD. ) ;
#20 = CONICAL_SURFACE ( 'NONE', #155, 0.9799999999999934319, 1.029744258676649649 ) ;
#21 = ADVANCED_FACE ( 'NONE', ( #114, #198 ), #11, .T. ) ;
#22 = DIRECTION ( 'NONE',  ( 1.000000000000000000, 0.0000000000000000000, 0.0000000000000000000 ) ) ;
#23 = COORDINATED_UNIVERSAL_TIME_OFFSET ( 1, 0, .AHEAD. ) ;
#24 = COORDINATED_UNIVERSAL_TIME_OFFSET ( 1, 0, .AHEAD. ) ;
#25 = ADVANCED_FACE ( 'NONE', ( #97 ), #162, .F. ) ;
#26 = PERSON_AND_ORGANIZATION ( #73, #194 ) ;
#27 = AXIS2_PLACEMENT_3D ( 'NONE', #190, #187, #118 ) ;
#28 = CC_DESIGN_PERSON_AND_ORGANIZATION_ASSIGNMENT ( #71, #191, ( #4 ) ) ;
#29 = DIRECTION ( 'NONE',  ( 0.0000000000000000000, 1.000000000000000000, 0.0000000000000000000 ) ) ;
#30 = DIRECTION ( 'NONE',  ( -3.491481338843133355E-15, 1.224646799147353207E-16, -1.000000000000000000 ) ) ;
#31 = CARTESIAN_POINT ( 'NONE',  ( 2.055935765808859721E-15, -7.211251931492861657E-17, 0.5888434066470116246 ) ) ;
#32 = CARTESIAN_POINT ( 'NONE',  ( 1.319779946082704535E-13, -4.629164900776995227E-15, 37.79999999999999716 ) ) ;
#33 = ADVANCED_BREP_SHAPE_REPRESENTATION ( '61370', ( #95, #168, #199 ), #164 ) ;
#34 = DIRECTION ( 'NONE',  ( 3.491481338843133355E-15, -1.224646799147353207E-16, 1.000000000000000000 ) ) ;
#35 = AXIS2_PLACEMENT_3D ( 'NONE', #119, #202, #166 ) ;
#36 =( NAMED_UNIT ( * ) SI_UNIT ( $, .STERADIAN. ) SOLID_ANGLE_UNIT ( ) );
#37 = CARTESIAN_POINT ( 'NONE',  ( 4.201872452756871306E-14, 0.9999999999999954481, 12.03464101615138127 ) ) ;
#38 = CARTESIAN_POINT ( 'NONE',  ( 4.189777606611760026E-14, 0.9799999999999929878, 12.00000000000000000 ) ) ;
#39 = FACE_OUTER_BOUND ( 'NONE', #160, .T. ) ;
#40 = CLOSED_SHELL ( 'NONE', ( #125, #60, #109 ) ) ;
#41 = CARTESIAN_POINT ( 'NONE',  ( 4.189777606611760026E-14, -1.469576158976823947E-15, 12.00000000000000000 ) ) ;
#42 = SECURITY_CLASSIFICATION_LEVEL ( 'unclassified' ) ;
#43 = PERSON_AND_ORGANIZATION ( #73, #194 ) ;
#44 = PERSON_AND_ORGANIZATION ( #73, #194 ) ;
#45 = DESIGN_CONTEXT ( 'detailed design', #139, 'design' ) ;
#46 = DIRECTION ( 'NONE',  ( 3.491481338843133355E-15, -1.224646799147353207E-16, 1.000000000000000000 ) ) ;
#47 = DIRECTION ( 'NONE',  ( 0.0000000000000000000, 1.000000000000000000, 0.0000000000000000000 ) ) ;
#48 = ORIENTED_EDGE ( 'NONE', *, *, #219, .F. ) ;
#49 = CC_DESIGN_PERSON_AND_ORGANIZATION_ASSIGNMENT ( #108, #175, ( #129 ) ) ;
#50 = FACE_BOUND ( 'NONE', #195, .T. ) ;
#51 = DIRECTION ( 'NONE',  ( -3.491481338843133355E-15, 1.224646799147353207E-16, -1.000000000000000000 ) ) ;
#52 = EDGE_CURVE ( 'NONE', #55, #55, #75, .T. ) ;
#53 =( NAMED_UNIT ( * ) PLANE_ANGLE_UNIT ( ) SI_UNIT ( $, .RADIAN. ) );
#54 = APPROVAL_ROLE ( '' ) ;
#55 = VERTEX_POINT ( 'NONE', #37 ) ;
#56 = VERTEX_POINT ( 'NONE', #65 ) ;
#57 = DATE_TIME_ROLE ( 'creation_date' ) ;
#58 = PLANE ( 'NONE',  #178 ) ;
#59 = FACE_OUTER_BOUND ( 'NONE', #181, .T. ) ;
#60 = ADVANCED_FACE ( 'NONE', ( #163, #10 ), #16, .T. ) ;
#61 = CARTESIAN_POINT ( 'NONE',  ( 1.326762908760390423E-13, -4.653657836759941941E-15, 38.00000000000000000 ) ) ;
#62 = ORIENTED_EDGE ( 'NONE', *, *, #52, .T. ) ;
#63 = AXIS2_PLACEMENT_3D ( 'NONE', #61, #30, #112 ) ;
#64 = CARTESIAN_POINT ( 'NONE',  ( 1.326762908760390423E-13, -4.653657836759941941E-15, 38.00000000000000000 ) ) ;
#65 = CARTESIAN_POINT ( 'NONE',  ( 1.319779946082704535E-13, 0.9999999999999956701, 37.79999999999999716 ) ) ;
#66 = DIRECTION ( 'NONE',  ( -3.491481338843133355E-15, 1.224646799147353207E-16, -1.000000000000000000 ) ) ;
#67 = CARTESIAN_POINT ( 'NONE',  ( 0.0000000000000000000, 0.0000000000000000000, 0.0000000000000000000 ) ) ;
#68 = DIRECTION ( 'NONE',  ( -3.491481338843133355E-15, 1.224646799147353207E-16, -1.000000000000000000 ) ) ;
#69 = CALENDAR_DATE ( 2021, 8, 10 ) ;
#70 = CIRCLE ( 'NONE', #183, 1.000000000000000222 ) ;
#71 = PERSON_AND_ORGANIZATION ( #73, #194 ) ;
#72 = CLOSED_SHELL ( 'NONE', ( #196, #21, #167, #156, #25 ) ) ;
#73 = PERSON ( 'UNSPECIFIED', 'UNSPECIFIED', 'UNSPECIFIED', ('UNSPECIFIED'), ('UNSPECIFIED'), ('UNSPECIFIED') ) ;
#74 = CARTESIAN_POINT ( 'NONE',  ( 4.189777606611760026E-14, 7.348822935043039603E-33, 12.00000000000000000 ) ) ;
#75 = CIRCLE ( 'NONE', #120, 0.9999999999999970024 ) ;
#76 = ORIENTED_EDGE ( 'NONE', *, *, #2, .F. ) ;
#77 = CARTESIAN_POINT ( 'NONE',  ( 1.326762908760390423E-13, 5.999039130647361324E-33, 38.00000000000000000 ) ) ;
#78 = PRODUCT_RELATED_PRODUCT_CATEGORY ( 'detail', '', ( #185 ) ) ;
#79 = DIRECTION ( 'NONE',  ( 3.491481338843133355E-15, -1.224646799147353207E-16, 1.000000000000000000 ) ) ;
#80 = FACE_OUTER_BOUND ( 'NONE', #171, .T. ) ;
#81 = PERSON_AND_ORGANIZATION_ROLE ( 'design_owner' ) ;
#82 = CARTESIAN_POINT ( 'NONE',  ( 2.055935765808860115E-15, 0.9799999999999934319, 0.5888434066470117356 ) ) ;
#83 = APPROVAL ( #223, 'UNSPECIFIED' ) ;
#84 = CONICAL_SURFACE ( 'NONE', #141, 0.8000000000000001554, 0.7853981633974516097 ) ;
#85 = CALENDAR_DATE ( 2021, 8, 10 ) ;
#86 = DIRECTION ( 'NONE',  ( -4.275831445896958607E-31, -1.000000000000000000, -1.224646799147353207E-16 ) ) ;
#87 = SHAPE_DEFINITION_REPRESENTATION ( #148, #33 ) ;
#88 = AXIS2_PLACEMENT_3D ( 'NONE', #184, #101, #86 ) ;
#89 = APPROVAL_STATUS ( 'not_yet_approved' ) ;
#90 = CALENDAR_DATE ( 2021, 8, 10 ) ;
#91 = DATE_AND_TIME ( #90, #92 ) ;
#92 = LOCAL_TIME ( 7, 16, 5.000000000000000000, #24 ) ;
#93 = CARTESIAN_POINT ( 'NONE',  ( 4.201872452756871306E-14, -1.473818459931723927E-15, 12.03464101615138127 ) ) ;
#94 = EDGE_LOOP ( 'NONE', ( #151 ) ) ;
#95 = MANIFOLD_SOLID_BREP ( 'Corps-Déplacer/Copier1[1]', #72 ) ;
#96 = ORIENTED_EDGE ( 'NONE', *, *, #161, .F. ) ;
#97 = FACE_OUTER_BOUND ( 'NONE', #110, .T. ) ;
#98 = ORIENTED_EDGE ( 'NONE', *, *, #2, .T. ) ;
#99 = APPROVAL_PERSON_ORGANIZATION ( #147, #83, #54 ) ;
#100 = DIRECTION ( 'NONE',  ( 0.0000000000000000000, 0.0000000000000000000, 1.000000000000000000 ) ) ;
#101 = DIRECTION ( 'NONE',  ( 3.491481338843133355E-15, -1.224646799147353207E-16, 1.000000000000000000 ) ) ;
#102 = CC_DESIGN_PERSON_AND_ORGANIZATION_ASSIGNMENT ( #26, #122, ( #4 ) ) ;
#103 = PLANE ( 'NONE',  #88 ) ;
#104 = VERTEX_POINT ( 'NONE', #82 ) ;
#105 = DATE_AND_TIME ( #8, #157 ) ;
#106 = APPROVAL_ROLE ( '' ) ;
#107 = APPROVAL_DATE_TIME ( #169, #9 ) ;
#108 = PERSON_AND_ORGANIZATION ( #73, #194 ) ;
#109 = ADVANCED_FACE ( 'NONE', ( #80 ), #58, .T. ) ;
#110 = EDGE_LOOP ( 'NONE', ( #96 ) ) ;
#111 = EDGE_LOOP ( 'NONE', ( #177 ) ) ;
#112 = DIRECTION ( 'NONE',  ( 0.0000000000000000000, 1.000000000000000000, 0.0000000000000000000 ) ) ;
#113 = ORIENTED_EDGE ( 'NONE', *, *, #204, .F. ) ;
#114 = FACE_BOUND ( 'NONE', #180, .T. ) ;
#115 = CARTESIAN_POINT ( 'NONE',  ( 2.055935765808859721E-15, -7.211251931492861657E-17, 0.5888434066470116246 ) ) ;
#116 = LOCAL_TIME ( 7, 16, 5.000000000000000000, #23 ) ;
#117 =( LENGTH_UNIT ( ) NAMED_UNIT ( * ) SI_UNIT ( .MILLI., .METRE. ) );
#118 = DIRECTION ( 'NONE',  ( 0.0000000000000000000, 1.000000000000000000, 0.0000000000000000000 ) ) ;
#119 = CARTESIAN_POINT ( 'NONE',  ( 0.0000000000000000000, 0.0000000000000000000, 0.0000000000000000000 ) ) ;
#120 = AXIS2_PLACEMENT_3D ( 'NONE', #201, #213, #29 ) ;
#121 = VERTEX_POINT ( 'NONE', #135 ) ;
#122 = PERSON_AND_ORGANIZATION_ROLE ( 'design_supplier' ) ;
#123 = AXIS2_PLACEMENT_3D ( 'NONE', #93, #34, #13 ) ;
#124 = CALENDAR_DATE ( 2021, 8, 10 ) ;
#125 = ADVANCED_FACE ( 'NONE', ( #59 ), #20, .T. ) ;
#126 = APPROVAL_PERSON_ORGANIZATION ( #43, #9, #212 ) ;
#127 = CC_DESIGN_APPROVAL ( #83, ( #129 ) ) ;
#128 = DIRECTION ( 'NONE',  ( -3.930469274259691361E-31, -1.000000000000000000, -1.106328747434195616E-16 ) ) ;
#129 = PRODUCT_DEFINITION ( 'UNKNOWN', '', #4, #45 ) ;
#130 = FACE_OUTER_BOUND ( 'NONE', #94, .T. ) ;
#131 = DIRECTION ( 'NONE',  ( -4.275831445896958607E-31, -1.000000000000000000, -1.224646799147353207E-16 ) ) ;
#132 = EDGE_LOOP ( 'NONE', ( #145 ) ) ;
#133 = CARTESIAN_POINT ( 'NONE',  ( 4.189777606611760026E-14, 0.9799999999999929878, 12.00000000000000000 ) ) ;
#134 = APPROVAL_PERSON_ORGANIZATION ( #44, #140, #106 ) ;
#135 = CARTESIAN_POINT ( 'NONE',  ( 1.326762908760390423E-13, 0.7999999999999954925, 38.00000000000000000 ) ) ;
#136 = APPLICATION_PROTOCOL_DEFINITION ( 'international standard', 'config_control_design', 1994, #139 ) ;
#137 = MECHANICAL_CONTEXT ( 'NONE', #206, 'mechanical' ) ;
#138 = DATE_TIME_ROLE ( 'classification_date' ) ;
#139 = APPLICATION_CONTEXT ( 'configuration controlled 3d designs of mechanical parts and assemblies' ) ;
#140 = APPROVAL ( #89, 'UNSPECIFIED' ) ;
#141 = AXIS2_PLACEMENT_3D ( 'NONE', #64, #197, #47 ) ;
#142 = LOCAL_TIME ( 7, 16, 5.000000000000000000, #193 ) ;
#143 = ORIENTED_EDGE ( 'NONE', *, *, #161, .T. ) ;
#144 = DIRECTION ( 'NONE',  ( 4.275831445896958607E-31, 1.000000000000000000, 1.224646799147353207E-16 ) ) ;
#145 = ORIENTED_EDGE ( 'NONE', *, *, #211, .F. ) ;
#146 = AXIS2_PLACEMENT_3D ( 'NONE', #115, #68, #207 ) ;
#147 = PERSON_AND_ORGANIZATION ( #73, #194 ) ;
#148 = PRODUCT_DEFINITION_SHAPE ( 'NONE', 'NONE',  #129 ) ;
#149 = FACE_OUTER_BOUND ( 'NONE', #176, .T. ) ;
#150 = APPROVAL_DATE_TIME ( #1, #83 ) ;
#151 = ORIENTED_EDGE ( 'NONE', *, *, #52, .F. ) ;
#152 = CC_DESIGN_PERSON_AND_ORGANIZATION_ASSIGNMENT ( #172, #174, ( #6 ) ) ;
#153 = COORDINATED_UNIVERSAL_TIME_OFFSET ( 1, 0, .AHEAD. ) ;
#154 = APPROVAL_DATE_TIME ( #105, #140 ) ;
#155 = AXIS2_PLACEMENT_3D ( 'NONE', #31, #46, #128 ) ;
#156 = ADVANCED_FACE ( 'NONE', ( #200, #50 ), #84, .T. ) ;
#157 = LOCAL_TIME ( 7, 16, 5.000000000000000000, #153 ) ;
#158 = DIRECTION ( 'NONE',  ( 4.275831445896958607E-31, 1.000000000000000000, 1.224646799147353454E-16 ) ) ;
#159 = CIRCLE ( 'NONE', #63, 0.8000000000000001554 ) ;
#160 = EDGE_LOOP ( 'NONE', ( #98 ) ) ;
#161 = EDGE_CURVE ( 'NONE', #121, #121, #159, .T. ) ;
#162 = PLANE ( 'NONE',  #192 ) ;
#163 = FACE_OUTER_BOUND ( 'NONE', #132, .T. ) ;
#164 =( GEOMETRIC_REPRESENTATION_CONTEXT ( 3 ) GLOBAL_UNCERTAINTY_ASSIGNED_CONTEXT ( ( #173 ) ) GLOBAL_UNIT_ASSIGNED_CONTEXT ( ( #117, #53, #36 ) ) REPRESENTATION_CONTEXT ( 'NONE', 'WORKASPACE' ) );
#165 = PERSON_AND_ORGANIZATION ( #73, #194 ) ;
#166 = DIRECTION ( 'NONE',  ( 4.275831445896959482E-31, 1.000000000000000000, 1.224646799147353454E-16 ) ) ;
#167 = ADVANCED_FACE ( 'NONE', ( #130, #39 ), #222, .T. ) ;
#168 = MANIFOLD_SOLID_BREP ( 'Corps-Déplacer/Copier1[2]', #40 ) ;
#169 = DATE_AND_TIME ( #69, #142 ) ;
#170 = CC_DESIGN_DATE_AND_TIME_ASSIGNMENT ( #3, #57, ( #129 ) ) ;
#171 = EDGE_LOOP ( 'NONE', ( #113 ) ) ;
#172 = PERSON_AND_ORGANIZATION ( #73, #194 ) ;
#173 = UNCERTAINTY_MEASURE_WITH_UNIT (LENGTH_MEASURE( 1.000000000000000082E-05 ), #117, 'distance_accuracy_value', 'NONE');
#174 = PERSON_AND_ORGANIZATION_ROLE ( 'classification_officer' ) ;
#175 = PERSON_AND_ORGANIZATION_ROLE ( 'creator' ) ;
#176 = EDGE_LOOP ( 'NONE', ( #14 ) ) ;
#177 = ORIENTED_EDGE ( 'NONE', *, *, #204, .T. ) ;
#178 = AXIS2_PLACEMENT_3D ( 'NONE', #74, #79, #131 ) ;
#179 = DIRECTION ( 'NONE',  ( -3.491481338843133355E-15, 1.224646799147353207E-16, -1.000000000000000000 ) ) ;
#180 = EDGE_LOOP ( 'NONE', ( #48 ) ) ;
#181 = EDGE_LOOP ( 'NONE', ( #7 ) ) ;
#182 = VERTEX_POINT ( 'NONE', #38 ) ;
#183 = AXIS2_PLACEMENT_3D ( 'NONE', #32, #179, #221 ) ;
#184 = CARTESIAN_POINT ( 'NONE',  ( 4.189777606611760026E-14, 7.348822935043039603E-33, 12.00000000000000000 ) ) ;
#185 = PRODUCT ( '61370', '61370', '', ( #137 ) ) ;
#186 = DIRECTION ( 'NONE',  ( 0.0000000000000000000, 1.000000000000000000, 0.0000000000000000000 ) ) ;
#187 = DIRECTION ( 'NONE',  ( -3.491481338843133355E-15, 1.224646799147353207E-16, -1.000000000000000000 ) ) ;
#188 = AXIS2_PLACEMENT_3D ( 'NONE', #41, #66, #186 ) ;
#189 = CC_DESIGN_APPROVAL ( #140, ( #6 ) ) ;
#190 = CARTESIAN_POINT ( 'NONE',  ( 4.189777606611760026E-14, -1.469576158976823947E-15, 12.00000000000000000 ) ) ;
#191 = PERSON_AND_ORGANIZATION_ROLE ( 'creator' ) ;
#192 = AXIS2_PLACEMENT_3D ( 'NONE', #77, #51, #144 ) ;
#193 = COORDINATED_UNIVERSAL_TIME_OFFSET ( 1, 0, .AHEAD. ) ;
#194 = ORGANIZATION ( 'UNSPECIFIED', 'UNSPECIFIED', '' ) ;
#195 = EDGE_LOOP ( 'NONE', ( #143 ) ) ;
#196 = ADVANCED_FACE ( 'NONE', ( #149 ), #103, .F. ) ;
#197 = DIRECTION ( 'NONE',  ( -3.491481338843133355E-15, 1.224646799147353207E-16, -1.000000000000000000 ) ) ;
#198 = FACE_OUTER_BOUND ( 'NONE', #12, .T. ) ;
#199 = AXIS2_PLACEMENT_3D ( 'NONE', #67, #100, #22 ) ;
#200 = FACE_OUTER_BOUND ( 'NONE', #218, .T. ) ;
#201 = CARTESIAN_POINT ( 'NONE',  ( 4.201872452756871306E-14, -1.473818459931723927E-15, 12.03464101615138127 ) ) ;
#202 = DIRECTION ( 'NONE',  ( -3.491481338843133355E-15, 1.224646799147353207E-16, -1.000000000000000000 ) ) ;
#203 = CIRCLE ( 'NONE', #146, 0.9799999999999934319 ) ;
#204 = EDGE_CURVE ( 'NONE', #18, #18, #215, .T. ) ;
#205 = APPLICATION_PROTOCOL_DEFINITION ( 'international standard', 'config_control_design', 1994, #206 ) ;
#206 = APPLICATION_CONTEXT ( 'configuration controlled 3d designs of mechanical parts and assemblies' ) ;
#207 = DIRECTION ( 'NONE',  ( 3.930469274259691361E-31, 1.000000000000000000, 1.106328747434195616E-16 ) ) ;
#208 = CIRCLE ( 'NONE', #188, 0.9799999999999945421 ) ;
#209 = CC_DESIGN_SECURITY_CLASSIFICATION ( #6, ( #4 ) ) ;
#210 = APPROVAL_STATUS ( 'not_yet_approved' ) ;
#211 = EDGE_CURVE ( 'NONE', #104, #104, #203, .T. ) ;
#212 = APPROVAL_ROLE ( '' ) ;
#213 = DIRECTION ( 'NONE',  ( -3.491481338843133355E-15, 1.224646799147353207E-16, -1.000000000000000000 ) ) ;
#214 = CC_DESIGN_PERSON_AND_ORGANIZATION_ASSIGNMENT ( #165, #81, ( #185 ) ) ;
#215 = CIRCLE ( 'NONE', #27, 0.9799999999999945421 ) ;
#216 = CC_DESIGN_APPROVAL ( #9, ( #4 ) ) ;
#217 = DIRECTION ( 'NONE',  ( -3.491481338843133355E-15, 1.224646799147353207E-16, -1.000000000000000000 ) ) ;
#218 = EDGE_LOOP ( 'NONE', ( #76 ) ) ;
#219 = EDGE_CURVE ( 'NONE', #182, #182, #208, .T. ) ;
#220 = CARTESIAN_POINT ( 'NONE',  ( 0.0000000000000000000, 0.0000000000000000000, 0.0000000000000000000 ) ) ;
#221 = DIRECTION ( 'NONE',  ( 0.0000000000000000000, 1.000000000000000000, 0.0000000000000000000 ) ) ;
#222 = CYLINDRICAL_SURFACE ( 'NONE', #35, 0.9999999999999986677 ) ;
#223 = APPROVAL_STATUS ( 'not_yet_approved' ) ;
ENDSEC;
END-ISO-10303-21;
