ISO-10303-21;
HEADER;
FILE_DESCRIPTION (( 'STEP AP203' ),
    '1' );
FILE_NAME ('61368.step',
    '2021-10-07T13:48:26',
    ( '' ),
    ( '' ),
    'SwSTEP 2.0',
    'SolidWorks 2019',
    '' );
FILE_SCHEMA (( 'CONFIG_CONTROL_DESIGN' ));
ENDSEC;

DATA;
#1 = ORIENTED_EDGE ( 'NONE', *, *, #144, .F. ) ;
#2 = CONICAL_SURFACE ( 'NONE', #99, 0.9999999999999963363, 0.5235987755983031455 ) ;
#3 = CARTESIAN_POINT ( 'NONE',  ( 0.0000000000000000000, 0.0000000000000000000, 0.0000000000000000000 ) ) ;
#4 = CARTESIAN_POINT ( 'NONE',  ( 4.189777606611760657E-14, -1.469576158976824144E-15, 12.00000000000000178 ) ) ;
#5 = AXIS2_PLACEMENT_3D ( 'NONE', #48, #165, #223 ) ;
#6 = CONICAL_SURFACE ( 'NONE', #169, 0.9799999999999934319, 1.029744258676649649 ) ;
#7 = CARTESIAN_POINT ( 'NONE',  ( 0.0000000000000000000, 0.0000000000000000000, 0.0000000000000000000 ) ) ;
#8 = APPROVAL_DATE_TIME ( #129, #179 ) ;
#9 = CARTESIAN_POINT ( 'NONE',  ( 2.055935765808860115E-15, 0.9799999999999934319, 0.5888434066470117356 ) ) ;
#10 = APPROVAL_STATUS ( 'not_yet_approved' ) ;
#11 = PRODUCT_RELATED_PRODUCT_CATEGORY ( 'detail', '', ( #173 ) ) ;
#12 = DATE_AND_TIME ( #97, #86 ) ;
#13 = APPROVAL_ROLE ( '' ) ;
#14 = EDGE_LOOP ( 'NONE', ( #220 ) ) ;
#15 = ORIENTED_EDGE ( 'NONE', *, *, #118, .F. ) ;
#16 = CARTESIAN_POINT ( 'NONE',  ( 4.201872452756870675E-14, -1.473818459931723730E-15, 12.03464101615137949 ) ) ;
#17 = DIRECTION ( 'NONE',  ( -3.491481338843133355E-15, 1.224646799147353207E-16, -1.000000000000000000 ) ) ;
#18 = FACE_OUTER_BOUND ( 'NONE', #61, .T. ) ;
#19 =( NAMED_UNIT ( * ) PLANE_ANGLE_UNIT ( ) SI_UNIT ( $, .RADIAN. ) );
#20 = AXIS2_PLACEMENT_3D ( 'NONE', #93, #22, #92 ) ;
#21 = DIRECTION ( 'NONE',  ( 0.0000000000000000000, 1.000000000000000000, 0.0000000000000000000 ) ) ;
#22 = DIRECTION ( 'NONE',  ( -3.491481338843133355E-15, 1.224646799147353207E-16, -1.000000000000000000 ) ) ;
#23 = AXIS2_PLACEMENT_3D ( 'NONE', #125, #136, #82 ) ;
#24 = SECURITY_CLASSIFICATION_LEVEL ( 'unclassified' ) ;
#25 = ORIENTED_EDGE ( 'NONE', *, *, #188, .T. ) ;
#26 = APPROVAL_DATE_TIME ( #78, #222 ) ;
#27 = COORDINATED_UNIVERSAL_TIME_OFFSET ( 1, 0, .AHEAD. ) ;
#28 = AXIS2_PLACEMENT_3D ( 'NONE', #3, #211, #66 ) ;
#29 = ADVANCED_FACE ( 'NONE', ( #64, #119 ), #46, .T. ) ;
#30 = DIRECTION ( 'NONE',  ( -3.930469274259691361E-31, -1.000000000000000000, -1.106328747434195616E-16 ) ) ;
#31 = AXIS2_PLACEMENT_3D ( 'NONE', #102, #168, #137 ) ;
#32 = EDGE_LOOP ( 'NONE', ( #182 ) ) ;
#33 = FACE_OUTER_BOUND ( 'NONE', #133, .T. ) ;
#34 = EDGE_LOOP ( 'NONE', ( #203 ) ) ;
#35 = PRODUCT_DEFINITION_FORMATION_WITH_SPECIFIED_SOURCE ( 'ANY', '', #173, .NOT_KNOWN. ) ;
#36 = FACE_OUTER_BOUND ( 'NONE', #146, .T. ) ;
#37 = APPLICATION_PROTOCOL_DEFINITION ( 'international standard', 'config_control_design', 1994, #56 ) ;
#38 = MANIFOLD_SOLID_BREP ( 'Corps-Déplacer/Copier1[1]', #221 ) ;
#39 = EDGE_CURVE ( 'NONE', #88, #88, #215, .T. ) ;
#40 = VERTEX_POINT ( 'NONE', #112 ) ;
#41 = DIRECTION ( 'NONE',  ( -3.491481338843133355E-15, 1.224646799147353207E-16, -1.000000000000000000 ) ) ;
#42 = APPROVAL_DATE_TIME ( #114, #217 ) ;
#43 = APPROVAL_STATUS ( 'not_yet_approved' ) ;
#44 = EDGE_LOOP ( 'NONE', ( #25 ) ) ;
#45 = PERSON_AND_ORGANIZATION_ROLE ( 'classification_officer' ) ;
#46 = CONICAL_SURFACE ( 'NONE', #174, 0.7999999999999996003, 0.7853981633974507215 ) ;
#47 = DIRECTION ( 'NONE',  ( 3.930469274259691361E-31, 1.000000000000000000, 1.106328747434195616E-16 ) ) ;
#48 = CARTESIAN_POINT ( 'NONE',  ( 1.326762908760390423E-13, 5.999039130647358587E-33, 38.00000000000000000 ) ) ;
#49 = AXIS2_PLACEMENT_3D ( 'NONE', #4, #52, #84 ) ;
#50 = FACE_BOUND ( 'NONE', #32, .T. ) ;
#51 = CARTESIAN_POINT ( 'NONE',  ( 1.319779946082704535E-13, -4.629164900776995227E-15, 37.79999999999999716 ) ) ;
#52 = DIRECTION ( 'NONE',  ( -3.491481338843133355E-15, 1.224646799147353207E-16, -1.000000000000000000 ) ) ;
#53 = CARTESIAN_POINT ( 'NONE',  ( 1.326762908760390423E-13, 0.7999999999999949374, 38.00000000000000000 ) ) ;
#54 = PERSON_AND_ORGANIZATION_ROLE ( 'design_owner' ) ;
#55 = DATE_AND_TIME ( #216, #98 ) ;
#56 = APPLICATION_CONTEXT ( 'configuration controlled 3d designs of mechanical parts and assemblies' ) ;
#57 = CIRCLE ( 'NONE', #154, 0.9999999999999993339 ) ;
#58 = CALENDAR_DATE ( 2021, 7, 10 ) ;
#59 = PERSON_AND_ORGANIZATION ( #96, #185 ) ;
#60 = PERSON_AND_ORGANIZATION_ROLE ( 'design_supplier' ) ;
#61 = EDGE_LOOP ( 'NONE', ( #83 ) ) ;
#62 = EDGE_CURVE ( 'NONE', #107, #107, #130, .T. ) ;
#63 = ORIENTED_EDGE ( 'NONE', *, *, #39, .T. ) ;
#64 = FACE_OUTER_BOUND ( 'NONE', #67, .T. ) ;
#65 = AXIS2_PLACEMENT_3D ( 'NONE', #214, #41, #21 ) ;
#66 = DIRECTION ( 'NONE',  ( 4.275831445896958607E-31, 1.000000000000000000, 1.224646799147352961E-16 ) ) ;
#67 = EDGE_LOOP ( 'NONE', ( #1 ) ) ;
#68 = ADVANCED_FACE ( 'NONE', ( #33 ), #6, .T. ) ;
#69 = CARTESIAN_POINT ( 'NONE',  ( 4.189777606611760657E-14, 0.9799999999999947642, 12.00000000000000178 ) ) ;
#70 = APPROVAL_PERSON_ORGANIZATION ( #180, #222, #159 ) ;
#71 = DIRECTION ( 'NONE',  ( 1.000000000000000000, 0.0000000000000000000, 0.0000000000000000000 ) ) ;
#72 = PERSON_AND_ORGANIZATION ( #96, #185 ) ;
#73 = CC_DESIGN_PERSON_AND_ORGANIZATION_ASSIGNMENT ( #95, #45, ( #105 ) ) ;
#74 = PERSON_AND_ORGANIZATION ( #96, #185 ) ;
#75 = CC_DESIGN_APPROVAL ( #179, ( #80 ) ) ;
#76 = DIRECTION ( 'NONE',  ( 0.0000000000000000000, 0.0000000000000000000, 1.000000000000000000 ) ) ;
#77 = ADVANCED_FACE ( 'NONE', ( #100 ), #209, .F. ) ;
#78 = DATE_AND_TIME ( #79, #110 ) ;
#79 = CALENDAR_DATE ( 2021, 7, 10 ) ;
#80 = PRODUCT_DEFINITION ( 'UNKNOWN', '', #35, #158 ) ;
#81 = LOCAL_TIME ( 15, 48, 26.00000000000000000, #155 ) ;
#82 = DIRECTION ( 'NONE',  ( 0.0000000000000000000, 1.000000000000000000, 0.0000000000000000000 ) ) ;
#83 = ORIENTED_EDGE ( 'NONE', *, *, #118, .T. ) ;
#84 = DIRECTION ( 'NONE',  ( 0.0000000000000000000, 1.000000000000000000, 0.0000000000000000000 ) ) ;
#85 = FACE_OUTER_BOUND ( 'NONE', #34, .T. ) ;
#86 = LOCAL_TIME ( 15, 48, 26.00000000000000000, #27 ) ;
#87 = CARTESIAN_POINT ( 'NONE',  ( 4.189777606611760026E-14, 7.348822935043050551E-33, 12.00000000000000000 ) ) ;
#88 = VERTEX_POINT ( 'NONE', #69 ) ;
#89 = APPROVAL_PERSON_ORGANIZATION ( #59, #217, #13 ) ;
#90 = CC_DESIGN_PERSON_AND_ORGANIZATION_ASSIGNMENT ( #183, #94, ( #35 ) ) ;
#91 = DIRECTION ( 'NONE',  ( -4.275831445896958607E-31, -1.000000000000000000, -1.224646799147353207E-16 ) ) ;
#92 = DIRECTION ( 'NONE',  ( 0.0000000000000000000, 1.000000000000000000, 0.0000000000000000000 ) ) ;
#93 = CARTESIAN_POINT ( 'NONE',  ( 4.201872452756870675E-14, -1.473818459931723730E-15, 12.03464101615137949 ) ) ;
#94 = PERSON_AND_ORGANIZATION_ROLE ( 'creator' ) ;
#95 = PERSON_AND_ORGANIZATION ( #96, #185 ) ;
#96 = PERSON ( 'UNSPECIFIED', 'UNSPECIFIED', 'UNSPECIFIED', ('UNSPECIFIED'), ('UNSPECIFIED'), ('UNSPECIFIED') ) ;
#97 = CALENDAR_DATE ( 2021, 7, 10 ) ;
#98 = LOCAL_TIME ( 15, 48, 26.00000000000000000, #111 ) ;
#99 = AXIS2_PLACEMENT_3D ( 'NONE', #16, #194, #210 ) ;
#100 = FACE_OUTER_BOUND ( 'NONE', #201, .T. ) ;
#101 = DIRECTION ( 'NONE',  ( 3.491481338843133355E-15, -1.224646799147353207E-16, 1.000000000000000000 ) ) ;
#102 = CARTESIAN_POINT ( 'NONE',  ( 0.0000000000000000000, 0.0000000000000000000, 0.0000000000000000000 ) ) ;
#103 = APPLICATION_CONTEXT ( 'configuration controlled 3d designs of mechanical parts and assemblies' ) ;
#104 = FACE_OUTER_BOUND ( 'NONE', #205, .T. ) ;
#105 = SECURITY_CLASSIFICATION ( '', '', #24 ) ;
#106 = DIRECTION ( 'NONE',  ( 0.0000000000000000000, 1.000000000000000000, 0.0000000000000000000 ) ) ;
#107 = VERTEX_POINT ( 'NONE', #9 ) ;
#108 = ADVANCED_FACE ( 'NONE', ( #150 ), #121, .T. ) ;
#109 = PERSON_AND_ORGANIZATION ( #96, #185 ) ;
#110 = LOCAL_TIME ( 15, 48, 26.00000000000000000, #162 ) ;
#111 = COORDINATED_UNIVERSAL_TIME_OFFSET ( 1, 0, .AHEAD. ) ;
#112 = CARTESIAN_POINT ( 'NONE',  ( 4.201872452756870675E-14, 0.9999999999999947820, 12.03464101615137949 ) ) ;
#113 = ADVANCED_FACE ( 'NONE', ( #50, #167 ), #2, .T. ) ;
#114 = DATE_AND_TIME ( #202, #189 ) ;
#115 = ORIENTED_EDGE ( 'NONE', *, *, #144, .T. ) ;
#116 = CC_DESIGN_PERSON_AND_ORGANIZATION_ASSIGNMENT ( #72, #140, ( #80 ) ) ;
#117 = UNCERTAINTY_MEASURE_WITH_UNIT (LENGTH_MEASURE( 1.000000000000000082E-05 ), #142, 'distance_accuracy_value', 'NONE');
#118 = EDGE_CURVE ( 'NONE', #212, #212, #126, .T. ) ;
#119 = FACE_BOUND ( 'NONE', #163, .T. ) ;
#120 = CIRCLE ( 'NONE', #20, 0.9999999999999963363 ) ;
#121 = PLANE ( 'NONE',  #219 ) ;
#122 = FACE_OUTER_BOUND ( 'NONE', #14, .T. ) ;
#123 = CC_DESIGN_PERSON_AND_ORGANIZATION_ASSIGNMENT ( #74, #54, ( #173 ) ) ;
#124 = DIRECTION ( 'NONE',  ( -3.491481338843133355E-15, 1.224646799147353207E-16, -1.000000000000000000 ) ) ;
#125 = CARTESIAN_POINT ( 'NONE',  ( 4.189777606611760657E-14, -1.469576158976824144E-15, 12.00000000000000178 ) ) ;
#126 = CIRCLE ( 'NONE', #49, 0.9799999999999963185 ) ;
#127 = APPLICATION_PROTOCOL_DEFINITION ( 'international standard', 'config_control_design', 1994, #103 ) ;
#128 = DATE_TIME_ROLE ( 'creation_date' ) ;
#129 = DATE_AND_TIME ( #58, #81 ) ;
#130 = CIRCLE ( 'NONE', #139, 0.9799999999999934319 ) ;
#131 = ADVANCED_FACE ( 'NONE', ( #122, #18 ), #191, .T. ) ;
#132 = COORDINATED_UNIVERSAL_TIME_OFFSET ( 1, 0, .AHEAD. ) ;
#133 = EDGE_LOOP ( 'NONE', ( #147 ) ) ;
#134 = DIRECTION ( 'NONE',  ( -3.491481338843133355E-15, 1.224646799147353207E-16, -1.000000000000000000 ) ) ;
#135 = ADVANCED_FACE ( 'NONE', ( #85, #36 ), #152, .T. ) ;
#136 = DIRECTION ( 'NONE',  ( -3.491481338843133355E-15, 1.224646799147353207E-16, -1.000000000000000000 ) ) ;
#137 = DIRECTION ( 'NONE',  ( 4.275831445896958607E-31, 1.000000000000000000, 1.224646799147353207E-16 ) ) ;
#138 = VERTEX_POINT ( 'NONE', #197 ) ;
#139 = AXIS2_PLACEMENT_3D ( 'NONE', #171, #134, #47 ) ;
#140 = PERSON_AND_ORGANIZATION_ROLE ( 'creator' ) ;
#141 = PRODUCT_DEFINITION_SHAPE ( 'NONE', 'NONE',  #80 ) ;
#142 =( LENGTH_UNIT ( ) NAMED_UNIT ( * ) SI_UNIT ( .MILLI., .METRE. ) );
#143 = AXIS2_PLACEMENT_3D ( 'NONE', #87, #196, #91 ) ;
#144 = EDGE_CURVE ( 'NONE', #138, #138, #57, .T. ) ;
#145 = CC_DESIGN_APPROVAL ( #222, ( #105 ) ) ;
#146 = EDGE_LOOP ( 'NONE', ( #115 ) ) ;
#147 = ORIENTED_EDGE ( 'NONE', *, *, #62, .T. ) ;
#148 = DIRECTION ( 'NONE',  ( 3.491481338843133355E-15, -1.224646799147353207E-16, 1.000000000000000000 ) ) ;
#149 = ORIENTED_EDGE ( 'NONE', *, *, #166, .T. ) ;
#150 = FACE_OUTER_BOUND ( 'NONE', #184, .T. ) ;
#151 = CIRCLE ( 'NONE', #65, 0.7999999999999996003 ) ;
#152 = CYLINDRICAL_SURFACE ( 'NONE', #28, 0.9999999999999978906 ) ;
#153 = DIRECTION ( 'NONE',  ( -4.275831445896958607E-31, -1.000000000000000000, -1.224646799147353207E-16 ) ) ;
#154 = AXIS2_PLACEMENT_3D ( 'NONE', #51, #124, #192 ) ;
#155 = COORDINATED_UNIVERSAL_TIME_OFFSET ( 1, 0, .AHEAD. ) ;
#156 = VERTEX_POINT ( 'NONE', #53 ) ;
#157 = ADVANCED_FACE ( 'NONE', ( #104 ), #170, .F. ) ;
#158 = DESIGN_CONTEXT ( 'detailed design', #103, 'design' ) ;
#159 = APPROVAL_ROLE ( '' ) ;
#160 = CC_DESIGN_PERSON_AND_ORGANIZATION_ASSIGNMENT ( #199, #60, ( #35 ) ) ;
#161 = SHAPE_DEFINITION_REPRESENTATION ( #141, #172 ) ;
#162 = COORDINATED_UNIVERSAL_TIME_OFFSET ( 1, 0, .AHEAD. ) ;
#163 = EDGE_LOOP ( 'NONE', ( #149 ) ) ;
#164 = AXIS2_PLACEMENT_3D ( 'NONE', #7, #76, #71 ) ;
#165 = DIRECTION ( 'NONE',  ( -3.491481338843133355E-15, 1.224646799147353207E-16, -1.000000000000000000 ) ) ;
#166 = EDGE_CURVE ( 'NONE', #156, #156, #151, .T. ) ;
#167 = FACE_OUTER_BOUND ( 'NONE', #44, .T. ) ;
#168 = DIRECTION ( 'NONE',  ( -3.491481338843133355E-15, 1.224646799147353207E-16, -1.000000000000000000 ) ) ;
#169 = AXIS2_PLACEMENT_3D ( 'NONE', #187, #148, #30 ) ;
#170 = PLANE ( 'NONE',  #143 ) ;
#171 = CARTESIAN_POINT ( 'NONE',  ( 2.055935765808859721E-15, -7.211251931492861657E-17, 0.5888434066470116246 ) ) ;
#172 = ADVANCED_BREP_SHAPE_REPRESENTATION ( '61368', ( #38, #186, #164 ), #200 ) ;
#173 = PRODUCT ( '61368', '61368', '', ( #213 ) ) ;
#174 = AXIS2_PLACEMENT_3D ( 'NONE', #206, #17, #106 ) ;
#175 = APPROVAL_ROLE ( '' ) ;
#176 = CC_DESIGN_DATE_AND_TIME_ASSIGNMENT ( #12, #218, ( #105 ) ) ;
#177 = APPROVAL_STATUS ( 'not_yet_approved' ) ;
#178 = APPROVAL_PERSON_ORGANIZATION ( #109, #179, #175 ) ;
#179 = APPROVAL ( #10, 'UNSPECIFIED' ) ;
#180 = PERSON_AND_ORGANIZATION ( #96, #185 ) ;
#181 = ORIENTED_EDGE ( 'NONE', *, *, #166, .F. ) ;
#182 = ORIENTED_EDGE ( 'NONE', *, *, #39, .F. ) ;
#183 = PERSON_AND_ORGANIZATION ( #96, #185 ) ;
#184 = EDGE_LOOP ( 'NONE', ( #15 ) ) ;
#185 = ORGANIZATION ( 'UNSPECIFIED', 'UNSPECIFIED', '' ) ;
#186 = MANIFOLD_SOLID_BREP ( 'Corps-Déplacer/Copier1[2]', #207 ) ;
#187 = CARTESIAN_POINT ( 'NONE',  ( 2.055935765808859721E-15, -7.211251931492861657E-17, 0.5888434066470116246 ) ) ;
#188 = EDGE_CURVE ( 'NONE', #40, #40, #120, .T. ) ;
#189 = LOCAL_TIME ( 15, 48, 26.00000000000000000, #132 ) ;
#190 = CARTESIAN_POINT ( 'NONE',  ( 4.189777606611760026E-14, 7.348822935043050551E-33, 12.00000000000000000 ) ) ;
#191 = CYLINDRICAL_SURFACE ( 'NONE', #31, 0.9799999999999947642 ) ;
#192 = DIRECTION ( 'NONE',  ( 0.0000000000000000000, 1.000000000000000000, 0.0000000000000000000 ) ) ;
#193 = CC_DESIGN_DATE_AND_TIME_ASSIGNMENT ( #55, #128, ( #80 ) ) ;
#194 = DIRECTION ( 'NONE',  ( 3.491481338843133355E-15, -1.224646799147353207E-16, 1.000000000000000000 ) ) ;
#195 =( NAMED_UNIT ( * ) SI_UNIT ( $, .STERADIAN. ) SOLID_ANGLE_UNIT ( ) );
#196 = DIRECTION ( 'NONE',  ( 3.491481338843133355E-15, -1.224646799147353207E-16, 1.000000000000000000 ) ) ;
#197 = CARTESIAN_POINT ( 'NONE',  ( 1.319779946082704535E-13, 0.9999999999999947820, 37.79999999999999716 ) ) ;
#198 = CARTESIAN_POINT ( 'NONE',  ( 4.189777606611760657E-14, 0.9799999999999947642, 12.00000000000000178 ) ) ;
#199 = PERSON_AND_ORGANIZATION ( #96, #185 ) ;
#200 =( GEOMETRIC_REPRESENTATION_CONTEXT ( 3 ) GLOBAL_UNCERTAINTY_ASSIGNED_CONTEXT ( ( #117 ) ) GLOBAL_UNIT_ASSIGNED_CONTEXT ( ( #142, #19, #195 ) ) REPRESENTATION_CONTEXT ( 'NONE', 'WORKASPACE' ) );
#201 = EDGE_LOOP ( 'NONE', ( #181 ) ) ;
#202 = CALENDAR_DATE ( 2021, 7, 10 ) ;
#203 = ORIENTED_EDGE ( 'NONE', *, *, #188, .F. ) ;
#204 = CC_DESIGN_SECURITY_CLASSIFICATION ( #105, ( #35 ) ) ;
#205 = EDGE_LOOP ( 'NONE', ( #63 ) ) ;
#206 = CARTESIAN_POINT ( 'NONE',  ( 1.326762908760390423E-13, -4.653657836759941941E-15, 38.00000000000000000 ) ) ;
#207 = CLOSED_SHELL ( 'NONE', ( #68, #131, #108 ) ) ;
#208 = CC_DESIGN_APPROVAL ( #217, ( #35 ) ) ;
#209 = PLANE ( 'NONE',  #5 ) ;
#210 = DIRECTION ( 'NONE',  ( 0.0000000000000000000, -1.000000000000000000, 0.0000000000000000000 ) ) ;
#211 = DIRECTION ( 'NONE',  ( -3.491481338843133355E-15, 1.224646799147353207E-16, -1.000000000000000000 ) ) ;
#212 = VERTEX_POINT ( 'NONE', #198 ) ;
#213 = MECHANICAL_CONTEXT ( 'NONE', #56, 'mechanical' ) ;
#214 = CARTESIAN_POINT ( 'NONE',  ( 1.326762908760390423E-13, -4.653657836759941941E-15, 38.00000000000000000 ) ) ;
#215 = CIRCLE ( 'NONE', #23, 0.9799999999999963185 ) ;
#216 = CALENDAR_DATE ( 2021, 7, 10 ) ;
#217 = APPROVAL ( #177, 'UNSPECIFIED' ) ;
#218 = DATE_TIME_ROLE ( 'classification_date' ) ;
#219 = AXIS2_PLACEMENT_3D ( 'NONE', #190, #101, #153 ) ;
#220 = ORIENTED_EDGE ( 'NONE', *, *, #62, .F. ) ;
#221 = CLOSED_SHELL ( 'NONE', ( #157, #113, #135, #29, #77 ) ) ;
#222 = APPROVAL ( #43, 'UNSPECIFIED' ) ;
#223 = DIRECTION ( 'NONE',  ( 4.275831445896958607E-31, 1.000000000000000000, 1.224646799147353207E-16 ) ) ;
ENDSEC;
END-ISO-10303-21;
