ISO-10303-21;
HEADER;
FILE_DESCRIPTION (( 'STEP AP203' ),
    '1' );
FILE_NAME ('61367.step',
    '2021-10-08T05:16:04',
    ( '' ),
    ( '' ),
    'SwSTEP 2.0',
    'SolidWorks 2019',
    '' );
FILE_SCHEMA (( 'CONFIG_CONTROL_DESIGN' ));
ENDSEC;

DATA;
#1 = ORIENTED_EDGE ( 'NONE', *, *, #155, .F. ) ;
#2 = CARTESIAN_POINT ( 'NONE',  ( 1.326762908760390423E-13, 5.999039130647361324E-33, 38.00000000000000000 ) ) ;
#3 = CC_DESIGN_APPROVAL ( #70, ( #215 ) ) ;
#4 = APPROVAL_PERSON_ORGANIZATION ( #115, #35, #96 ) ;
#5 = PERSON ( 'UNSPECIFIED', 'UNSPECIFIED', 'UNSPECIFIED', ('UNSPECIFIED'), ('UNSPECIFIED'), ('UNSPECIFIED') ) ;
#6 = VERTEX_POINT ( 'NONE', #156 ) ;
#7 = ADVANCED_FACE ( 'NONE', ( #140 ), #188, .F. ) ;
#8 = CARTESIAN_POINT ( 'NONE',  ( 4.189777606611760026E-14, 7.161352962210307402E-33, 12.00000000000000000 ) ) ;
#9 = DESIGN_CONTEXT ( 'detailed design', #185, 'design' ) ;
#10 = FACE_OUTER_BOUND ( 'NONE', #118, .T. ) ;
#11 = AXIS2_PLACEMENT_3D ( 'NONE', #109, #142, #72 ) ;
#12 = CARTESIAN_POINT ( 'NONE',  ( 4.189777606611760026E-14, 0.9549999999999931877, 12.00000000000000000 ) ) ;
#13 = PERSON_AND_ORGANIZATION_ROLE ( 'design_supplier' ) ;
#14 = PERSON_AND_ORGANIZATION_ROLE ( 'classification_officer' ) ;
#15 = ADVANCED_FACE ( 'NONE', ( #149, #120 ), #164, .T. ) ;
#16 = PERSON_AND_ORGANIZATION ( #5, #197 ) ;
#17 = DATE_AND_TIME ( #79, #222 ) ;
#18 = APPROVAL ( #218, 'UNSPECIFIED' ) ;
#19 = DIRECTION ( 'NONE',  ( 0.0000000000000000000, -1.000000000000000000, 0.0000000000000000000 ) ) ;
#20 = ORIENTED_EDGE ( 'NONE', *, *, #189, .F. ) ;
#21 = AXIS2_PLACEMENT_3D ( 'NONE', #101, #88, #19 ) ;
#22 = LOCAL_TIME ( 7, 16, 4.000000000000000000, #203 ) ;
#23 = DIRECTION ( 'NONE',  ( -3.491481338843133355E-15, 1.224646799147353207E-16, -1.000000000000000000 ) ) ;
#24 = PRODUCT ( '61367', '61367', '', ( #144 ) ) ;
#25 = AXIS2_PLACEMENT_3D ( 'NONE', #87, #177, #84 ) ;
#26 = DIRECTION ( 'NONE',  ( 0.0000000000000000000, 1.000000000000000000, 0.0000000000000000000 ) ) ;
#27 = FACE_OUTER_BOUND ( 'NONE', #173, .T. ) ;
#28 =( GEOMETRIC_REPRESENTATION_CONTEXT ( 3 ) GLOBAL_UNCERTAINTY_ASSIGNED_CONTEXT ( ( #160 ) ) GLOBAL_UNIT_ASSIGNED_CONTEXT ( ( #178, #76, #42 ) ) REPRESENTATION_CONTEXT ( 'NONE', 'WORKASPACE' ) );
#29 = DIRECTION ( 'NONE',  ( 0.0000000000000000000, 0.0000000000000000000, 1.000000000000000000 ) ) ;
#30 = PRODUCT_RELATED_PRODUCT_CATEGORY ( 'detail', '', ( #24 ) ) ;
#31 = PERSON_AND_ORGANIZATION_ROLE ( 'creator' ) ;
#32 = AXIS2_PLACEMENT_3D ( 'NONE', #180, #60, #26 ) ;
#33 = DATE_AND_TIME ( #81, #111 ) ;
#34 = APPROVAL_STATUS ( 'not_yet_approved' ) ;
#35 = APPROVAL ( #61, 'UNSPECIFIED' ) ;
#36 = ORIENTED_EDGE ( 'NONE', *, *, #151, .F. ) ;
#37 = CARTESIAN_POINT ( 'NONE',  ( 4.189777606611760026E-14, 7.161352962210307402E-33, 12.00000000000000000 ) ) ;
#38 = DIRECTION ( 'NONE',  ( -3.491481338843133355E-15, 1.224646799147353207E-16, -1.000000000000000000 ) ) ;
#39 = AXIS2_PLACEMENT_3D ( 'NONE', #221, #66, #134 ) ;
#40 = EDGE_LOOP ( 'NONE', ( #85 ) ) ;
#41 = FACE_OUTER_BOUND ( 'NONE', #153, .T. ) ;
#42 =( NAMED_UNIT ( * ) SI_UNIT ( $, .STERADIAN. ) SOLID_ANGLE_UNIT ( ) );
#43 = CLOSED_SHELL ( 'NONE', ( #198, #15, #171, #201, #7 ) ) ;
#44 = CARTESIAN_POINT ( 'NONE',  ( 2.003488424844347911E-15, 0.9549999999999934097, 0.5738218911713225401 ) ) ;
#45 = PRODUCT_DEFINITION_FORMATION_WITH_SPECIFIED_SOURCE ( 'ANY', '', #24, .NOT_KNOWN. ) ;
#46 = CARTESIAN_POINT ( 'NONE',  ( 2.003488424844347516E-15, -7.027291423036408985E-17, 0.5738218911713224291 ) ) ;
#47 = CARTESIAN_POINT ( 'NONE',  ( 4.189777606611760026E-14, 0.9549999999999931877, 12.00000000000000000 ) ) ;
#48 = CIRCLE ( 'NONE', #210, 1.000000000000000222 ) ;
#49 = PERSON_AND_ORGANIZATION ( #5, #197 ) ;
#50 = CC_DESIGN_PERSON_AND_ORGANIZATION_ASSIGNMENT ( #83, #133, ( #45 ) ) ;
#51 = APPROVAL_DATE_TIME ( #17, #70 ) ;
#52 = DIRECTION ( 'NONE',  ( 4.275831445896958607E-31, 1.000000000000000000, 1.224646799147353207E-16 ) ) ;
#53 = ORIENTED_EDGE ( 'NONE', *, *, #95, .F. ) ;
#54 = CARTESIAN_POINT ( 'NONE',  ( 2.003488424844347516E-15, -7.027291423036408985E-17, 0.5738218911713224291 ) ) ;
#55 = AXIS2_PLACEMENT_3D ( 'NONE', #127, #29, #162 ) ;
#56 = DIRECTION ( 'NONE',  ( 0.0000000000000000000, 1.000000000000000000, 0.0000000000000000000 ) ) ;
#57 = EDGE_CURVE ( 'NONE', #182, #182, #196, .T. ) ;
#58 = CYLINDRICAL_SURFACE ( 'NONE', #86, 0.9999999999999986677 ) ;
#59 = DIRECTION ( 'NONE',  ( 3.491481338843133355E-15, -1.224646799147353207E-16, 1.000000000000000000 ) ) ;
#60 = DIRECTION ( 'NONE',  ( -3.491481338843133355E-15, 1.224646799147353207E-16, -1.000000000000000000 ) ) ;
#61 = APPROVAL_STATUS ( 'not_yet_approved' ) ;
#62 = APPROVAL_ROLE ( '' ) ;
#63 = SHAPE_DEFINITION_REPRESENTATION ( #117, #154 ) ;
#64 = CALENDAR_DATE ( 2021, 8, 10 ) ;
#65 = COORDINATED_UNIVERSAL_TIME_OFFSET ( 1, 0, .AHEAD. ) ;
#66 = DIRECTION ( 'NONE',  ( -3.491481338843133355E-15, 1.224646799147353207E-16, -1.000000000000000000 ) ) ;
#67 = EDGE_CURVE ( 'NONE', #6, #6, #145, .T. ) ;
#68 = DIRECTION ( 'NONE',  ( 3.491481338843133355E-15, -1.224646799147353207E-16, 1.000000000000000000 ) ) ;
#69 = EDGE_LOOP ( 'NONE', ( #53 ) ) ;
#70 = APPROVAL ( #34, 'UNSPECIFIED' ) ;
#71 = CARTESIAN_POINT ( 'NONE',  ( 1.326762908760390423E-13, -4.653657836759941941E-15, 38.00000000000000000 ) ) ;
#72 = DIRECTION ( 'NONE',  ( 0.0000000000000000000, 1.000000000000000000, 0.0000000000000000000 ) ) ;
#73 = DIRECTION ( 'NONE',  ( 3.491481338843133355E-15, -1.224646799147353207E-16, 1.000000000000000000 ) ) ;
#74 = ADVANCED_FACE ( 'NONE', ( #194, #41 ), #105, .T. ) ;
#75 = AXIS2_PLACEMENT_3D ( 'NONE', #46, #59, #200 ) ;
#76 =( NAMED_UNIT ( * ) PLANE_ANGLE_UNIT ( ) SI_UNIT ( $, .RADIAN. ) );
#77 = DIRECTION ( 'NONE',  ( -4.275831445896958607E-31, -1.000000000000000000, -1.224646799147353207E-16 ) ) ;
#78 = PERSON_AND_ORGANIZATION ( #5, #197 ) ;
#79 = CALENDAR_DATE ( 2021, 8, 10 ) ;
#80 = COORDINATED_UNIVERSAL_TIME_OFFSET ( 1, 0, .AHEAD. ) ;
#81 = CALENDAR_DATE ( 2021, 8, 10 ) ;
#82 = AXIS2_PLACEMENT_3D ( 'NONE', #137, #205, #92 ) ;
#83 = PERSON_AND_ORGANIZATION ( #5, #197 ) ;
#84 = DIRECTION ( 'NONE',  ( 4.275831445896958607E-31, 1.000000000000000000, 1.224646799147353207E-16 ) ) ;
#85 = ORIENTED_EDGE ( 'NONE', *, *, #57, .F. ) ;
#86 = AXIS2_PLACEMENT_3D ( 'NONE', #161, #199, #208 ) ;
#87 = CARTESIAN_POINT ( 'NONE',  ( 0.0000000000000000000, 0.0000000000000000000, 0.0000000000000000000 ) ) ;
#88 = DIRECTION ( 'NONE',  ( 3.491481338843133355E-15, -1.224646799147353207E-16, 1.000000000000000000 ) ) ;
#89 = EDGE_LOOP ( 'NONE', ( #1 ) ) ;
#90 = CARTESIAN_POINT ( 'NONE',  ( 1.319779946082704535E-13, -4.629164900776995227E-15, 37.79999999999999716 ) ) ;
#91 = CC_DESIGN_PERSON_AND_ORGANIZATION_ASSIGNMENT ( #167, #31, ( #184 ) ) ;
#92 = DIRECTION ( 'NONE',  ( 0.0000000000000000000, 1.000000000000000000, 0.0000000000000000000 ) ) ;
#93 = CONICAL_SURFACE ( 'NONE', #75, 0.9549999999999935207, 1.029744258676649649 ) ;
#94 = FACE_OUTER_BOUND ( 'NONE', #89, .T. ) ;
#95 = EDGE_CURVE ( 'NONE', #125, #125, #124, .T. ) ;
#96 = APPROVAL_ROLE ( '' ) ;
#97 = DATE_TIME_ROLE ( 'creation_date' ) ;
#98 = COORDINATED_UNIVERSAL_TIME_OFFSET ( 1, 0, .AHEAD. ) ;
#99 = AXIS2_PLACEMENT_3D ( 'NONE', #2, #23, #52 ) ;
#100 = MANIFOLD_SOLID_BREP ( 'Corps-Déplacer/Copier1[2]', #214 ) ;
#101 = CARTESIAN_POINT ( 'NONE',  ( 4.216991010438259459E-14, -1.479121336125348754E-15, 12.07794228634060474 ) ) ;
#102 = DIRECTION ( 'NONE',  ( -4.275831445896958607E-31, -1.000000000000000000, -1.224646799147353207E-16 ) ) ;
#103 = CONICAL_SURFACE ( 'NONE', #11, 0.8000000000000001554, 0.7853981633974516097 ) ;
#104 = EDGE_LOOP ( 'NONE', ( #176 ) ) ;
#105 = CYLINDRICAL_SURFACE ( 'NONE', #25, 0.9549999999999940758 ) ;
#106 = CC_DESIGN_DATE_AND_TIME_ASSIGNMENT ( #168, #97, ( #184 ) ) ;
#107 = VERTEX_POINT ( 'NONE', #143 ) ;
#108 = FACE_OUTER_BOUND ( 'NONE', #122, .T. ) ;
#109 = CARTESIAN_POINT ( 'NONE',  ( 1.326762908760390423E-13, -4.653657836759941941E-15, 38.00000000000000000 ) ) ;
#110 = PLANE ( 'NONE',  #174 ) ;
#111 = LOCAL_TIME ( 7, 16, 4.000000000000000000, #98 ) ;
#112 = DATE_TIME_ROLE ( 'classification_date' ) ;
#113 = CALENDAR_DATE ( 2021, 8, 10 ) ;
#114 = CC_DESIGN_APPROVAL ( #35, ( #184 ) ) ;
#115 = PERSON_AND_ORGANIZATION ( #5, #197 ) ;
#116 = CC_DESIGN_PERSON_AND_ORGANIZATION_ASSIGNMENT ( #49, #13, ( #45 ) ) ;
#117 = PRODUCT_DEFINITION_SHAPE ( 'NONE', 'NONE',  #184 ) ;
#118 = EDGE_LOOP ( 'NONE', ( #20 ) ) ;
#119 = FACE_OUTER_BOUND ( 'NONE', #69, .T. ) ;
#120 = FACE_OUTER_BOUND ( 'NONE', #204, .T. ) ;
#121 = EDGE_LOOP ( 'NONE', ( #172 ) ) ;
#122 = EDGE_LOOP ( 'NONE', ( #223 ) ) ;
#123 = FACE_OUTER_BOUND ( 'NONE', #139, .T. ) ;
#124 = CIRCLE ( 'NONE', #39, 0.9549999999999947420 ) ;
#125 = VERTEX_POINT ( 'NONE', #47 ) ;
#126 = DIRECTION ( 'NONE',  ( -3.491481338843133355E-15, 1.224646799147353207E-16, -1.000000000000000000 ) ) ;
#127 = CARTESIAN_POINT ( 'NONE',  ( 0.0000000000000000000, 0.0000000000000000000, 0.0000000000000000000 ) ) ;
#128 = APPROVAL_ROLE ( '' ) ;
#129 = CC_DESIGN_SECURITY_CLASSIFICATION ( #215, ( #45 ) ) ;
#130 = ADVANCED_FACE ( 'NONE', ( #119 ), #190, .T. ) ;
#131 = COORDINATED_UNIVERSAL_TIME_OFFSET ( 1, 0, .AHEAD. ) ;
#132 = AXIS2_PLACEMENT_3D ( 'NONE', #54, #38, #150 ) ;
#133 = PERSON_AND_ORGANIZATION_ROLE ( 'creator' ) ;
#134 = DIRECTION ( 'NONE',  ( 0.0000000000000000000, 1.000000000000000000, 0.0000000000000000000 ) ) ;
#135 = AXIS2_PLACEMENT_3D ( 'NONE', #37, #68, #102 ) ;
#136 = LOCAL_TIME ( 7, 16, 4.000000000000000000, #80 ) ;
#137 = CARTESIAN_POINT ( 'NONE',  ( 4.189777606611760026E-14, -1.469576158976823947E-15, 12.00000000000000000 ) ) ;
#138 = CC_DESIGN_PERSON_AND_ORGANIZATION_ASSIGNMENT ( #78, #14, ( #215 ) ) ;
#139 = EDGE_LOOP ( 'NONE', ( #192 ) ) ;
#140 = FACE_OUTER_BOUND ( 'NONE', #104, .T. ) ;
#141 = CIRCLE ( 'NONE', #32, 0.9999999999999970024 ) ;
#142 = DIRECTION ( 'NONE',  ( -3.491481338843133355E-15, 1.224646799147353207E-16, -1.000000000000000000 ) ) ;
#143 = CARTESIAN_POINT ( 'NONE',  ( 4.216991010438259459E-14, 0.9999999999999954481, 12.07794228634060474 ) ) ;
#144 = MECHANICAL_CONTEXT ( 'NONE', #158, 'mechanical' ) ;
#145 = CIRCLE ( 'NONE', #187, 0.8000000000000001554 ) ;
#146 = APPROVAL_DATE_TIME ( #33, #18 ) ;
#147 = CC_DESIGN_PERSON_AND_ORGANIZATION_ASSIGNMENT ( #16, #186, ( #24 ) ) ;
#148 = PERSON_AND_ORGANIZATION ( #5, #197 ) ;
#149 = FACE_BOUND ( 'NONE', #152, .T. ) ;
#150 = DIRECTION ( 'NONE',  ( 4.033361140078008512E-31, 1.000000000000000000, 1.135290232969122379E-16 ) ) ;
#151 = EDGE_CURVE ( 'NONE', #209, #209, #179, .T. ) ;
#152 = EDGE_LOOP ( 'NONE', ( #36 ) ) ;
#153 = EDGE_LOOP ( 'NONE', ( #170 ) ) ;
#154 = ADVANCED_BREP_SHAPE_REPRESENTATION ( '61367', ( #175, #100, #55 ), #28 ) ;
#155 = EDGE_CURVE ( 'NONE', #107, #107, #141, .T. ) ;
#156 = CARTESIAN_POINT ( 'NONE',  ( 1.326762908760390423E-13, 0.7999999999999954925, 38.00000000000000000 ) ) ;
#157 = DIRECTION ( 'NONE',  ( 0.0000000000000000000, 1.000000000000000000, 0.0000000000000000000 ) ) ;
#158 = APPLICATION_CONTEXT ( 'configuration controlled 3d designs of mechanical parts and assemblies' ) ;
#159 = FACE_BOUND ( 'NONE', #121, .T. ) ;
#160 = UNCERTAINTY_MEASURE_WITH_UNIT (LENGTH_MEASURE( 1.000000000000000082E-05 ), #178, 'distance_accuracy_value', 'NONE');
#161 = CARTESIAN_POINT ( 'NONE',  ( 0.0000000000000000000, 0.0000000000000000000, 0.0000000000000000000 ) ) ;
#162 = DIRECTION ( 'NONE',  ( 1.000000000000000000, 0.0000000000000000000, 0.0000000000000000000 ) ) ;
#163 = CALENDAR_DATE ( 2021, 8, 10 ) ;
#164 = CONICAL_SURFACE ( 'NONE', #21, 0.9999999999999970024, 0.5235987755982902669 ) ;
#165 = APPROVAL_PERSON_ORGANIZATION ( #217, #70, #128 ) ;
#166 = DATE_AND_TIME ( #64, #22 ) ;
#167 = PERSON_AND_ORGANIZATION ( #5, #197 ) ;
#168 = DATE_AND_TIME ( #113, #169 ) ;
#169 = LOCAL_TIME ( 7, 16, 4.000000000000000000, #65 ) ;
#170 = ORIENTED_EDGE ( 'NONE', *, *, #95, .T. ) ;
#171 = ADVANCED_FACE ( 'NONE', ( #94, #123 ), #58, .T. ) ;
#172 = ORIENTED_EDGE ( 'NONE', *, *, #67, .T. ) ;
#173 = EDGE_LOOP ( 'NONE', ( #191 ) ) ;
#174 = AXIS2_PLACEMENT_3D ( 'NONE', #8, #73, #77 ) ;
#175 = MANIFOLD_SOLID_BREP ( 'Corps-Déplacer/Copier1[1]', #43 ) ;
#176 = ORIENTED_EDGE ( 'NONE', *, *, #67, .F. ) ;
#177 = DIRECTION ( 'NONE',  ( -3.491481338843133355E-15, 1.224646799147353207E-16, -1.000000000000000000 ) ) ;
#178 =( LENGTH_UNIT ( ) NAMED_UNIT ( * ) SI_UNIT ( .MILLI., .METRE. ) );
#179 = CIRCLE ( 'NONE', #82, 0.9549999999999947420 ) ;
#180 = CARTESIAN_POINT ( 'NONE',  ( 4.216991010438259459E-14, -1.479121336125348754E-15, 12.07794228634060474 ) ) ;
#181 = CARTESIAN_POINT ( 'NONE',  ( 1.319779946082704535E-13, 0.9999999999999956701, 37.79999999999999716 ) ) ;
#182 = VERTEX_POINT ( 'NONE', #44 ) ;
#183 = APPLICATION_PROTOCOL_DEFINITION ( 'international standard', 'config_control_design', 1994, #158 ) ;
#184 = PRODUCT_DEFINITION ( 'UNKNOWN', '', #45, #9 ) ;
#185 = APPLICATION_CONTEXT ( 'configuration controlled 3d designs of mechanical parts and assemblies' ) ;
#186 = PERSON_AND_ORGANIZATION_ROLE ( 'design_owner' ) ;
#187 = AXIS2_PLACEMENT_3D ( 'NONE', #71, #206, #56 ) ;
#188 = PLANE ( 'NONE',  #99 ) ;
#189 = EDGE_CURVE ( 'NONE', #195, #195, #48, .T. ) ;
#190 = PLANE ( 'NONE',  #135 ) ;
#191 = ORIENTED_EDGE ( 'NONE', *, *, #151, .T. ) ;
#192 = ORIENTED_EDGE ( 'NONE', *, *, #189, .T. ) ;
#193 = ADVANCED_FACE ( 'NONE', ( #108 ), #93, .T. ) ;
#194 = FACE_OUTER_BOUND ( 'NONE', #40, .T. ) ;
#195 = VERTEX_POINT ( 'NONE', #181 ) ;
#196 = CIRCLE ( 'NONE', #132, 0.9549999999999935207 ) ;
#197 = ORGANIZATION ( 'UNSPECIFIED', 'UNSPECIFIED', '' ) ;
#198 = ADVANCED_FACE ( 'NONE', ( #27 ), #110, .F. ) ;
#199 = DIRECTION ( 'NONE',  ( -3.491481338843133355E-15, 1.224646799147353207E-16, -1.000000000000000000 ) ) ;
#200 = DIRECTION ( 'NONE',  ( -4.033361140078008512E-31, -1.000000000000000000, -1.135290232969122379E-16 ) ) ;
#201 = ADVANCED_FACE ( 'NONE', ( #10, #159 ), #103, .T. ) ;
#202 = APPLICATION_PROTOCOL_DEFINITION ( 'international standard', 'config_control_design', 1994, #185 ) ;
#203 = COORDINATED_UNIVERSAL_TIME_OFFSET ( 1, 0, .AHEAD. ) ;
#204 = EDGE_LOOP ( 'NONE', ( #207 ) ) ;
#205 = DIRECTION ( 'NONE',  ( -3.491481338843133355E-15, 1.224646799147353207E-16, -1.000000000000000000 ) ) ;
#206 = DIRECTION ( 'NONE',  ( -3.491481338843133355E-15, 1.224646799147353207E-16, -1.000000000000000000 ) ) ;
#207 = ORIENTED_EDGE ( 'NONE', *, *, #155, .T. ) ;
#208 = DIRECTION ( 'NONE',  ( 4.275831445896959482E-31, 1.000000000000000000, 1.224646799147353454E-16 ) ) ;
#209 = VERTEX_POINT ( 'NONE', #12 ) ;
#210 = AXIS2_PLACEMENT_3D ( 'NONE', #90, #126, #157 ) ;
#211 = CC_DESIGN_APPROVAL ( #18, ( #45 ) ) ;
#212 = CC_DESIGN_DATE_AND_TIME_ASSIGNMENT ( #166, #112, ( #215 ) ) ;
#213 = APPROVAL_DATE_TIME ( #220, #35 ) ;
#214 = CLOSED_SHELL ( 'NONE', ( #193, #74, #130 ) ) ;
#215 = SECURITY_CLASSIFICATION ( '', '', #216 ) ;
#216 = SECURITY_CLASSIFICATION_LEVEL ( 'unclassified' ) ;
#217 = PERSON_AND_ORGANIZATION ( #5, #197 ) ;
#218 = APPROVAL_STATUS ( 'not_yet_approved' ) ;
#219 = APPROVAL_PERSON_ORGANIZATION ( #148, #18, #62 ) ;
#220 = DATE_AND_TIME ( #163, #136 ) ;
#221 = CARTESIAN_POINT ( 'NONE',  ( 4.189777606611760026E-14, -1.469576158976823947E-15, 12.00000000000000000 ) ) ;
#222 = LOCAL_TIME ( 7, 16, 4.000000000000000000, #131 ) ;
#223 = ORIENTED_EDGE ( 'NONE', *, *, #57, .T. ) ;
ENDSEC;
END-ISO-10303-21;
