ISO-10303-21;
HEADER;
FILE_DESCRIPTION (( 'STEP AP203' ),
    '1' );
FILE_NAME ('61364.step',
    '2021-11-22T07:49:31',
    ( '' ),
    ( '' ),
    'SwSTEP 2.0',
    'SolidWorks 2019',
    '' );
FILE_SCHEMA (( 'CONFIG_CONTROL_DESIGN' ));
ENDSEC;

DATA;
#1 = PERSON_AND_ORGANIZATION_ROLE ( 'creator' ) ;
#2 = ADVANCED_FACE ( 'NONE', ( #164, #188 ), #40, .F. ) ;
#3 = FACE_OUTER_BOUND ( 'NONE', #92, .T. ) ;
#4 = ADVANCED_FACE ( 'NONE', ( #186, #29 ), #146, .T. ) ;
#5 = DESIGN_CONTEXT ( 'detailed design', #78, 'design' ) ;
#6 =( GEOMETRIC_REPRESENTATION_CONTEXT ( 3 ) GLOBAL_UNCERTAINTY_ASSIGNED_CONTEXT ( ( #80 ) ) GLOBAL_UNIT_ASSIGNED_CONTEXT ( ( #98, #35, #139 ) ) REPRESENTATION_CONTEXT ( 'NONE', 'WORKASPACE' ) );
#7 = SECURITY_CLASSIFICATION_LEVEL ( 'unclassified' ) ;
#8 = CYLINDRICAL_SURFACE ( 'NONE', #143, 5.999999999999994671 ) ;
#9 = CC_DESIGN_APPROVAL ( #189, ( #17 ) ) ;
#10 = CARTESIAN_POINT ( 'NONE',  ( 0.0000000000000000000, 0.0000000000000000000, 0.0000000000000000000 ) ) ;
#11 = EDGE_LOOP ( 'NONE', ( #131 ) ) ;
#12 = EDGE_LOOP ( 'NONE', ( #236 ) ) ;
#13 = DIRECTION ( 'NONE',  ( 3.491481338843133355E-15, -1.224646799147353207E-16, 1.000000000000000000 ) ) ;
#14 = DIRECTION ( 'NONE',  ( -3.491481338843133355E-15, 1.224646799147353207E-16, -1.000000000000000000 ) ) ;
#15 = VERTEX_POINT ( 'NONE', #136 ) ;
#16 = AXIS2_PLACEMENT_3D ( 'NONE', #176, #13, #214 ) ;
#17 = SECURITY_CLASSIFICATION ( '', '', #7 ) ;
#18 = APPLICATION_PROTOCOL_DEFINITION ( 'international standard', 'config_control_design', 1994, #123 ) ;
#19 = ADVANCED_FACE ( 'NONE', ( #105, #163 ), #8, .T. ) ;
#20 = DATE_AND_TIME ( #53, #233 ) ;
#21 = CARTESIAN_POINT ( 'NONE',  ( 4.189777606611760026E-13, -1.469576158976823671E-14, 120.0000000000000000 ) ) ;
#22 = CIRCLE ( 'NONE', #28, 5.999999999999988454 ) ;
#23 = LOCAL_TIME ( 8, 49, 30.00000000000000000, #130 ) ;
#24 = CALENDAR_DATE ( 2021, 22, 11 ) ;
#25 = PERSON_AND_ORGANIZATION_ROLE ( 'design_supplier' ) ;
#26 = PRODUCT_DEFINITION ( 'UNKNOWN', '', #211, #5 ) ;
#27 = ORIENTED_EDGE ( 'NONE', *, *, #168, .F. ) ;
#28 = AXIS2_PLACEMENT_3D ( 'NONE', #32, #47, #196 ) ;
#29 = FACE_OUTER_BOUND ( 'NONE', #122, .T. ) ;
#30 = PLANE ( 'NONE',  #60 ) ;
#31 = FACE_OUTER_BOUND ( 'NONE', #65, .T. ) ;
#32 = CARTESIAN_POINT ( 'NONE',  ( 6.284666409917640040E-14, -2.204364238465235428E-15, 18.00000000000000000 ) ) ;
#33 = DIRECTION ( 'NONE',  ( -3.491481338843133355E-15, 1.224646799147353207E-16, -1.000000000000000000 ) ) ;
#34 = CC_DESIGN_DATE_AND_TIME_ASSIGNMENT ( #20, #173, ( #26 ) ) ;
#35 =( NAMED_UNIT ( * ) PLANE_ANGLE_UNIT ( ) SI_UNIT ( $, .RADIAN. ) );
#36 = VERTEX_POINT ( 'NONE', #239 ) ;
#37 = DIRECTION ( 'NONE',  ( 3.491481338843133355E-15, -1.224646799147353207E-16, 1.000000000000000000 ) ) ;
#38 = CARTESIAN_POINT ( 'NONE',  ( 6.284666409917640040E-14, 4.499279347985560781E-32, 18.00000000000000000 ) ) ;
#39 = PERSON_AND_ORGANIZATION_ROLE ( 'design_owner' ) ;
#40 = TOROIDAL_SURFACE ( 'NONE', #16, 7.750000000000001776, 2.000000000000001776 ) ;
#41 = DATE_TIME_ROLE ( 'classification_date' ) ;
#42 = ORIENTED_EDGE ( 'NONE', *, *, #64, .F. ) ;
#43 = EDGE_LOOP ( 'NONE', ( #125 ) ) ;
#44 = DATE_AND_TIME ( #217, #23 ) ;
#45 = AXIS2_PLACEMENT_3D ( 'NONE', #72, #33, #170 ) ;
#46 = SHAPE_DEFINITION_REPRESENTATION ( #243, #201 ) ;
#47 = DIRECTION ( 'NONE',  ( -3.491481338843133355E-15, 1.224646799147353207E-16, -1.000000000000000000 ) ) ;
#48 = DIRECTION ( 'NONE',  ( 0.0000000000000000000, 1.000000000000000000, 0.0000000000000000000 ) ) ;
#49 = CARTESIAN_POINT ( 'NONE',  ( 4.172320199917544423E-13, -1.463452924981086914E-14, 119.5000000000000000 ) ) ;
#50 = EDGE_CURVE ( 'NONE', #54, #54, #22, .T. ) ;
#51 = CARTESIAN_POINT ( 'NONE',  ( 1.325654218069292478E-13, 5.999999999999990230, 37.96824583655184426 ) ) ;
#52 = VERTEX_POINT ( 'NONE', #202 ) ;
#53 = CALENDAR_DATE ( 2021, 22, 11 ) ;
#54 = VERTEX_POINT ( 'NONE', #57 ) ;
#55 = LOCAL_TIME ( 8, 49, 30.00000000000000000, #228 ) ;
#56 = PERSON_AND_ORGANIZATION ( #108, #66 ) ;
#57 = CARTESIAN_POINT ( 'NONE',  ( 6.284666409917640040E-14, 5.999999999999986677, 18.00000000000000000 ) ) ;
#58 = PERSON_AND_ORGANIZATION ( #108, #66 ) ;
#59 = ORIENTED_EDGE ( 'NONE', *, *, #79, .T. ) ;
#60 = AXIS2_PLACEMENT_3D ( 'NONE', #161, #231, #63 ) ;
#61 = EDGE_LOOP ( 'NONE', ( #166 ) ) ;
#62 = DATE_AND_TIME ( #102, #55 ) ;
#63 = DIRECTION ( 'NONE',  ( -4.275831445896958607E-31, -1.000000000000000000, -1.224646799147353207E-16 ) ) ;
#64 = EDGE_CURVE ( 'NONE', #52, #52, #165, .T. ) ;
#65 = EDGE_LOOP ( 'NONE', ( #229 ) ) ;
#66 = ORGANIZATION ( 'UNSPECIFIED', 'UNSPECIFIED', '' ) ;
#67 = DIRECTION ( 'NONE',  ( 4.275831445896958607E-31, 1.000000000000000000, 1.224646799147353207E-16 ) ) ;
#68 = CARTESIAN_POINT ( 'NONE',  ( 1.291848095371958963E-13, -4.531193156845204426E-15, 36.99999999999999289 ) ) ;
#69 = ADVANCED_FACE ( 'NONE', ( #84 ), #30, .F. ) ;
#70 = ORIENTED_EDGE ( 'NONE', *, *, #208, .F. ) ;
#71 = COORDINATED_UNIVERSAL_TIME_OFFSET ( 1, 0, .AHEAD. ) ;
#72 = CARTESIAN_POINT ( 'NONE',  ( 4.189777606611760026E-13, -1.469576158976823671E-14, 120.0000000000000000 ) ) ;
#73 = CALENDAR_DATE ( 2021, 22, 11 ) ;
#74 = CARTESIAN_POINT ( 'NONE',  ( 6.284666409917641302E-14, -5.750000000000003553, 18.00000000000000355 ) ) ;
#75 = AXIS2_PLACEMENT_3D ( 'NONE', #174, #167, #48 ) ;
#76 = CC_DESIGN_APPROVAL ( #221, ( #211 ) ) ;
#77 = APPROVAL_ROLE ( '' ) ;
#78 = APPLICATION_CONTEXT ( 'configuration controlled 3d designs of mechanical parts and assemblies' ) ;
#79 = EDGE_CURVE ( 'NONE', #226, #226, #192, .T. ) ;
#80 = UNCERTAINTY_MEASURE_WITH_UNIT (LENGTH_MEASURE( 1.000000000000000082E-05 ), #98, 'distance_accuracy_value', 'NONE');
#81 = PERSON_AND_ORGANIZATION_ROLE ( 'classification_officer' ) ;
#82 = ORIENTED_EDGE ( 'NONE', *, *, #50, .T. ) ;
#83 = EDGE_CURVE ( 'NONE', #241, #241, #232, .T. ) ;
#84 = FACE_OUTER_BOUND ( 'NONE', #234, .T. ) ;
#85 = PERSON_AND_ORGANIZATION ( #108, #66 ) ;
#86 = AXIS2_PLACEMENT_3D ( 'NONE', #68, #129, #193 ) ;
#87 = CC_DESIGN_PERSON_AND_ORGANIZATION_ASSIGNMENT ( #85, #25, ( #211 ) ) ;
#88 = APPROVAL_DATE_TIME ( #44, #189 ) ;
#89 = DIRECTION ( 'NONE',  ( 4.275831445896958607E-31, 1.000000000000000000, 1.224646799147353454E-16 ) ) ;
#90 = DIRECTION ( 'NONE',  ( 3.491481338843133355E-15, -1.224646799147353207E-16, 1.000000000000000000 ) ) ;
#91 = AXIS2_PLACEMENT_3D ( 'NONE', #116, #182, #153 ) ;
#92 = EDGE_LOOP ( 'NONE', ( #159 ) ) ;
#93 = CC_DESIGN_DATE_AND_TIME_ASSIGNMENT ( #62, #41, ( #17 ) ) ;
#94 = DIRECTION ( 'NONE',  ( 0.0000000000000000000, -1.000000000000000000, 0.0000000000000000000 ) ) ;
#95 = CARTESIAN_POINT ( 'NONE',  ( 6.284666409917641302E-14, -2.204364238465235428E-15, 18.00000000000000355 ) ) ;
#96 = AXIS2_PLACEMENT_3D ( 'NONE', #149, #147, #215 ) ;
#97 = DIRECTION ( 'NONE',  ( -1.000000000000000000, 8.851764801086474046E-33, 3.491481338843133355E-15 ) ) ;
#98 =( LENGTH_UNIT ( ) NAMED_UNIT ( * ) SI_UNIT ( .MILLI., .METRE. ) );
#99 = CLOSED_SHELL ( 'NONE', ( #4, #158, #198 ) ) ;
#100 = CC_DESIGN_PERSON_AND_ORGANIZATION_ASSIGNMENT ( #56, #1, ( #211 ) ) ;
#101 = PERSON_AND_ORGANIZATION ( #108, #66 ) ;
#102 = CALENDAR_DATE ( 2021, 22, 11 ) ;
#103 = EDGE_LOOP ( 'NONE', ( #82 ) ) ;
#104 = CARTESIAN_POINT ( 'NONE',  ( 2.094888803305876858E-14, -7.347880794884102973E-16, 5.999999999999991118 ) ) ;
#105 = FACE_OUTER_BOUND ( 'NONE', #157, .T. ) ;
#106 = MANIFOLD_SOLID_BREP ( 'Corps-Déplacer/Copier1[1]', #183 ) ;
#107 = DIRECTION ( 'NONE',  ( -3.491481338843133355E-15, 1.224646799147353207E-16, -1.000000000000000000 ) ) ;
#108 = PERSON ( 'UNSPECIFIED', 'UNSPECIFIED', 'UNSPECIFIED', ('UNSPECIFIED'), ('UNSPECIFIED'), ('UNSPECIFIED') ) ;
#109 = EDGE_LOOP ( 'NONE', ( #206 ) ) ;
#110 = AXIS2_PLACEMENT_3D ( 'NONE', #21, #14, #114 ) ;
#111 = LOCAL_TIME ( 8, 49, 30.00000000000000000, #242 ) ;
#112 = MANIFOLD_SOLID_BREP ( 'Corps-Déplacer/Copier1[2]', #99 ) ;
#113 = DIRECTION ( 'NONE',  ( 3.491481338843133355E-15, -1.224646799147353207E-16, 1.000000000000000000 ) ) ;
#114 = DIRECTION ( 'NONE',  ( 0.0000000000000000000, 1.000000000000000000, 0.0000000000000000000 ) ) ;
#115 = DIRECTION ( 'NONE',  ( 1.000000000000000000, 0.0000000000000000000, 0.0000000000000000000 ) ) ;
#116 = CARTESIAN_POINT ( 'NONE',  ( 4.189777606611760026E-13, 4.124339402320087074E-32, 120.0000000000000000 ) ) ;
#117 = DIRECTION ( 'NONE',  ( 5.135813185032637408E-31, 1.000000000000000000, 1.445602896647341628E-16 ) ) ;
#118 = CC_DESIGN_PERSON_AND_ORGANIZATION_ASSIGNMENT ( #205, #240, ( #26 ) ) ;
#119 = APPROVAL_DATE_TIME ( #184, #238 ) ;
#120 = CC_DESIGN_APPROVAL ( #238, ( #26 ) ) ;
#121 = EDGE_CURVE ( 'NONE', #15, #15, #124, .T. ) ;
#122 = EDGE_LOOP ( 'NONE', ( #59 ) ) ;
#123 = APPLICATION_CONTEXT ( 'configuration controlled 3d designs of mechanical parts and assemblies' ) ;
#124 = CIRCLE ( 'NONE', #75, 6.000000000000000888 ) ;
#125 = ORIENTED_EDGE ( 'NONE', *, *, #83, .F. ) ;
#126 = AXIS2_PLACEMENT_3D ( 'NONE', #150, #97, #117 ) ;
#127 = LOCAL_TIME ( 8, 49, 30.00000000000000000, #141 ) ;
#128 = AXIS2_PLACEMENT_3D ( 'NONE', #222, #137, #115 ) ;
#129 = DIRECTION ( 'NONE',  ( 3.491481338843133355E-15, -1.224646799147353207E-16, 1.000000000000000000 ) ) ;
#130 = COORDINATED_UNIVERSAL_TIME_OFFSET ( 1, 0, .AHEAD. ) ;
#131 = ORIENTED_EDGE ( 'NONE', *, *, #64, .T. ) ;
#132 = DIRECTION ( 'NONE',  ( 3.491481338843133355E-15, -1.224646799147353207E-16, 1.000000000000000000 ) ) ;
#133 = AXIS2_PLACEMENT_3D ( 'NONE', #38, #113, #155 ) ;
#134 = APPROVAL_PERSON_ORGANIZATION ( #213, #189, #148 ) ;
#135 = ADVANCED_FACE ( 'NONE', ( #194, #31 ), #218, .T. ) ;
#136 = CARTESIAN_POINT ( 'NONE',  ( 4.172320199917544423E-13, 5.999999999999986677, 119.5000000000000000 ) ) ;
#137 = DIRECTION ( 'NONE',  ( 0.0000000000000000000, 0.0000000000000000000, 1.000000000000000000 ) ) ;
#138 = APPROVAL_PERSON_ORGANIZATION ( #181, #221, #204 ) ;
#139 =( NAMED_UNIT ( * ) SI_UNIT ( $, .STERADIAN. ) SOLID_ANGLE_UNIT ( ) );
#140 = PLANE ( 'NONE',  #91 ) ;
#141 = COORDINATED_UNIVERSAL_TIME_OFFSET ( 1, 0, .AHEAD. ) ;
#142 = EDGE_LOOP ( 'NONE', ( #27 ) ) ;
#143 = AXIS2_PLACEMENT_3D ( 'NONE', #10, #107, #67 ) ;
#144 = CC_DESIGN_PERSON_AND_ORGANIZATION_ASSIGNMENT ( #162, #81, ( #17 ) ) ;
#145 = ORIENTED_EDGE ( 'NONE', *, *, #83, .T. ) ;
#146 = CYLINDRICAL_SURFACE ( 'NONE', #212, 5.999999999999987566 ) ;
#147 = DIRECTION ( 'NONE',  ( 3.491481338843133355E-15, -1.224646799147353207E-16, 1.000000000000000000 ) ) ;
#148 = APPROVAL_ROLE ( '' ) ;
#149 = CARTESIAN_POINT ( 'NONE',  ( 1.325654218069292478E-13, -4.455384606394114623E-15, 37.96824583655184426 ) ) ;
#150 = CARTESIAN_POINT ( 'NONE',  ( 2.094888803305876542E-14, -2.602085213965210642E-15, 5.999999999999990230 ) ) ;
#151 = VERTEX_POINT ( 'NONE', #74 ) ;
#152 = PRODUCT ( '61364', '61364', '', ( #171 ) ) ;
#153 = DIRECTION ( 'NONE',  ( 4.275831445896958607E-31, 1.000000000000000000, 1.224646799147353207E-16 ) ) ;
#154 = DATE_AND_TIME ( #73, #111 ) ;
#155 = DIRECTION ( 'NONE',  ( -4.275831445896958607E-31, -1.000000000000000000, -1.224646799147353207E-16 ) ) ;
#156 = APPLICATION_PROTOCOL_DEFINITION ( 'international standard', 'config_control_design', 1994, #78 ) ;
#157 = EDGE_LOOP ( 'NONE', ( #145 ) ) ;
#158 = ADVANCED_FACE ( 'NONE', ( #237 ), #203, .T. ) ;
#159 = ORIENTED_EDGE ( 'NONE', *, *, #79, .F. ) ;
#160 = AXIS2_PLACEMENT_3D ( 'NONE', #95, #37, #220 ) ;
#161 = CARTESIAN_POINT ( 'NONE',  ( 6.284666409917640040E-14, 4.499279347985560781E-32, 18.00000000000000000 ) ) ;
#162 = PERSON_AND_ORGANIZATION ( #108, #66 ) ;
#163 = FACE_OUTER_BOUND ( 'NONE', #12, .T. ) ;
#164 = FACE_OUTER_BOUND ( 'NONE', #11, .T. ) ;
#165 = CIRCLE ( 'NONE', #86, 5.749999999999999112 ) ;
#166 = ORIENTED_EDGE ( 'NONE', *, *, #121, .F. ) ;
#167 = DIRECTION ( 'NONE',  ( -3.491481338843133355E-15, 1.224646799147353207E-16, -1.000000000000000000 ) ) ;
#168 = EDGE_CURVE ( 'NONE', #36, #36, #210, .T. ) ;
#169 = CARTESIAN_POINT ( 'NONE',  ( 2.094888803305876542E-14, -5.999999999999989342, 5.999999999999990230 ) ) ;
#170 = DIRECTION ( 'NONE',  ( 0.0000000000000000000, 1.000000000000000000, 0.0000000000000000000 ) ) ;
#171 = MECHANICAL_CONTEXT ( 'NONE', #123, 'mechanical' ) ;
#172 = APPROVAL_STATUS ( 'not_yet_approved' ) ;
#173 = DATE_TIME_ROLE ( 'creation_date' ) ;
#174 = CARTESIAN_POINT ( 'NONE',  ( 4.172320199917544423E-13, -1.463452924981086914E-14, 119.5000000000000000 ) ) ;
#175 = EDGE_LOOP ( 'NONE', ( #207 ) ) ;
#176 = CARTESIAN_POINT ( 'NONE',  ( 1.291848095371959215E-13, -4.336808689942017736E-15, 37.00000000000000000 ) ) ;
#177 = CARTESIAN_POINT ( 'NONE',  ( 0.0000000000000000000, 0.0000000000000000000, 0.0000000000000000000 ) ) ;
#178 = DIRECTION ( 'NONE',  ( -3.491481338843133355E-15, 1.224646799147353207E-16, -1.000000000000000000 ) ) ;
#179 = FACE_OUTER_BOUND ( 'NONE', #142, .T. ) ;
#180 = CC_DESIGN_PERSON_AND_ORGANIZATION_ASSIGNMENT ( #58, #39, ( #152 ) ) ;
#181 = PERSON_AND_ORGANIZATION ( #108, #66 ) ;
#182 = DIRECTION ( 'NONE',  ( -3.491481338843133355E-15, 1.224646799147353207E-16, -1.000000000000000000 ) ) ;
#183 = CLOSED_SHELL ( 'NONE', ( #19, #195, #216, #2, #135, #69 ) ) ;
#184 = DATE_AND_TIME ( #24, #127 ) ;
#185 = PRODUCT_RELATED_PRODUCT_CATEGORY ( 'detail', '', ( #152 ) ) ;
#186 = FACE_OUTER_BOUND ( 'NONE', #103, .T. ) ;
#187 = CONICAL_SURFACE ( 'NONE', #110, 5.500000000000000888, 0.7853981633974482790 ) ;
#188 = FACE_OUTER_BOUND ( 'NONE', #43, .T. ) ;
#189 = APPROVAL ( #191, 'UNSPECIFIED' ) ;
#190 = AXIS2_PLACEMENT_3D ( 'NONE', #104, #90, #235 ) ;
#191 = APPROVAL_STATUS ( 'not_yet_approved' ) ;
#192 = CIRCLE ( 'NONE', #190, 5.999999999999988454 ) ;
#193 = DIRECTION ( 'NONE',  ( 0.0000000000000000000, -1.000000000000000000, 0.0000000000000000000 ) ) ;
#194 = FACE_OUTER_BOUND ( 'NONE', #209, .T. ) ;
#195 = ADVANCED_FACE ( 'NONE', ( #197, #199 ), #187, .T. ) ;
#196 = DIRECTION ( 'NONE',  ( 0.0000000000000000000, 1.000000000000000000, 0.0000000000000000000 ) ) ;
#197 = FACE_OUTER_BOUND ( 'NONE', #61, .T. ) ;
#198 = ADVANCED_FACE ( 'NONE', ( #3 ), #223, .T. ) ;
#199 = FACE_BOUND ( 'NONE', #109, .T. ) ;
#200 = CC_DESIGN_SECURITY_CLASSIFICATION ( #17, ( #211 ) ) ;
#201 = ADVANCED_BREP_SHAPE_REPRESENTATION ( '61364', ( #106, #112, #128 ), #6 ) ;
#202 = CARTESIAN_POINT ( 'NONE',  ( 1.291848095371958963E-13, -5.750000000000003553, 36.99999999999999289 ) ) ;
#203 = PLANE ( 'NONE',  #133 ) ;
#204 = APPROVAL_ROLE ( '' ) ;
#205 = PERSON_AND_ORGANIZATION ( #108, #66 ) ;
#206 = ORIENTED_EDGE ( 'NONE', *, *, #168, .T. ) ;
#207 = ORIENTED_EDGE ( 'NONE', *, *, #50, .F. ) ;
#208 = EDGE_CURVE ( 'NONE', #151, #151, #225, .T. ) ;
#209 = EDGE_LOOP ( 'NONE', ( #42 ) ) ;
#210 = CIRCLE ( 'NONE', #45, 5.500000000000000888 ) ;
#211 = PRODUCT_DEFINITION_FORMATION_WITH_SPECIFIED_SOURCE ( 'ANY', '', #152, .NOT_KNOWN. ) ;
#212 = AXIS2_PLACEMENT_3D ( 'NONE', #177, #178, #89 ) ;
#213 = PERSON_AND_ORGANIZATION ( #108, #66 ) ;
#214 = DIRECTION ( 'NONE',  ( -4.275831445896958607E-31, -1.000000000000000000, -1.224646799147353207E-16 ) ) ;
#215 = DIRECTION ( 'NONE',  ( 0.0000000000000000000, 1.000000000000000000, 0.0000000000000000000 ) ) ;
#216 = ADVANCED_FACE ( 'NONE', ( #179 ), #140, .F. ) ;
#217 = CALENDAR_DATE ( 2021, 22, 11 ) ;
#218 = CYLINDRICAL_SURFACE ( 'NONE', #219, 5.750000000000000000 ) ;
#219 = AXIS2_PLACEMENT_3D ( 'NONE', #49, #132, #94 ) ;
#220 = DIRECTION ( 'NONE',  ( 0.0000000000000000000, -1.000000000000000000, 0.0000000000000000000 ) ) ;
#221 = APPROVAL ( #172, 'UNSPECIFIED' ) ;
#222 = CARTESIAN_POINT ( 'NONE',  ( 0.0000000000000000000, 0.0000000000000000000, 0.0000000000000000000 ) ) ;
#223 = SPHERICAL_SURFACE ( 'NONE', #126, 5.999999999999990230 ) ;
#224 = APPROVAL_DATE_TIME ( #154, #221 ) ;
#225 = CIRCLE ( 'NONE', #160, 5.750000000000000888 ) ;
#226 = VERTEX_POINT ( 'NONE', #169 ) ;
#227 = APPROVAL_STATUS ( 'not_yet_approved' ) ;
#228 = COORDINATED_UNIVERSAL_TIME_OFFSET ( 1, 0, .AHEAD. ) ;
#229 = ORIENTED_EDGE ( 'NONE', *, *, #208, .T. ) ;
#230 = APPROVAL_PERSON_ORGANIZATION ( #101, #238, #77 ) ;
#231 = DIRECTION ( 'NONE',  ( 3.491481338843133355E-15, -1.224646799147353207E-16, 1.000000000000000000 ) ) ;
#232 = CIRCLE ( 'NONE', #96, 5.999999999999994671 ) ;
#233 = LOCAL_TIME ( 8, 49, 30.00000000000000000, #71 ) ;
#234 = EDGE_LOOP ( 'NONE', ( #70 ) ) ;
#235 = DIRECTION ( 'NONE',  ( -5.135813185032639159E-31, -1.000000000000000000, -1.445602896647342121E-16 ) ) ;
#236 = ORIENTED_EDGE ( 'NONE', *, *, #121, .T. ) ;
#237 = FACE_OUTER_BOUND ( 'NONE', #175, .T. ) ;
#238 = APPROVAL ( #227, 'UNSPECIFIED' ) ;
#239 = CARTESIAN_POINT ( 'NONE',  ( 4.189777606611760026E-13, 5.499999999999985789, 120.0000000000000000 ) ) ;
#240 = PERSON_AND_ORGANIZATION_ROLE ( 'creator' ) ;
#241 = VERTEX_POINT ( 'NONE', #51 ) ;
#242 = COORDINATED_UNIVERSAL_TIME_OFFSET ( 1, 0, .AHEAD. ) ;
#243 = PRODUCT_DEFINITION_SHAPE ( 'NONE', 'NONE',  #26 ) ;
ENDSEC;
END-ISO-10303-21;
