ISO-10303-21;
HEADER;
FILE_DESCRIPTION (( 'STEP AP203' ),
    '1' );
FILE_NAME ('61363.step',
    '2021-11-22T07:49:30',
    ( '' ),
    ( '' ),
    'SwSTEP 2.0',
    'SolidWorks 2019',
    '' );
FILE_SCHEMA (( 'CONFIG_CONTROL_DESIGN' ));
ENDSEC;

DATA;
#1 =( GEOMETRIC_REPRESENTATION_CONTEXT ( 3 ) GLOBAL_UNCERTAINTY_ASSIGNED_CONTEXT ( ( #83 ) ) GLOBAL_UNIT_ASSIGNED_CONTEXT ( ( #150, #172, #63 ) ) REPRESENTATION_CONTEXT ( 'NONE', 'WORKASPACE' ) );
#2 = CC_DESIGN_PERSON_AND_ORGANIZATION_ASSIGNMENT ( #43, #228, ( #198 ) ) ;
#3 = DIRECTION ( 'NONE',  ( -3.491481338843133355E-15, 1.224646799147353207E-16, -1.000000000000000000 ) ) ;
#4 = PERSON_AND_ORGANIZATION ( #185, #139 ) ;
#5 = CC_DESIGN_PERSON_AND_ORGANIZATION_ASSIGNMENT ( #175, #80, ( #176 ) ) ;
#6 = DESIGN_CONTEXT ( 'detailed design', #200, 'design' ) ;
#7 = AXIS2_PLACEMENT_3D ( 'NONE', #167, #147, #239 ) ;
#8 = ORIENTED_EDGE ( 'NONE', *, *, #47, .F. ) ;
#9 = COORDINATED_UNIVERSAL_TIME_OFFSET ( 1, 0, .AHEAD. ) ;
#10 = EDGE_CURVE ( 'NONE', #24, #24, #204, .T. ) ;
#11 = CC_DESIGN_APPROVAL ( #93, ( #135 ) ) ;
#12 = EDGE_LOOP ( 'NONE', ( #69 ) ) ;
#13 = ORIENTED_EDGE ( 'NONE', *, *, #231, .T. ) ;
#14 = LOCAL_TIME ( 8, 49, 30.00000000000000000, #154 ) ;
#15 = EDGE_LOOP ( 'NONE', ( #29 ) ) ;
#16 = EDGE_CURVE ( 'NONE', #81, #81, #145, .T. ) ;
#17 = CARTESIAN_POINT ( 'NONE',  ( 3.840629472727446943E-13, -1.347111479062088523E-14, 110.0000000000000000 ) ) ;
#18 = CYLINDRICAL_SURFACE ( 'NONE', #7, 4.999999999999989342 ) ;
#19 = AXIS2_PLACEMENT_3D ( 'NONE', #22, #111, #72 ) ;
#20 = DIRECTION ( 'NONE',  ( -4.275831445896959482E-31, -1.000000000000000000, -1.224646799147353454E-16 ) ) ;
#21 = DIRECTION ( 'NONE',  ( 0.0000000000000000000, -1.000000000000000000, 0.0000000000000000000 ) ) ;
#22 = CARTESIAN_POINT ( 'NONE',  ( 1.116165337738704729E-13, -3.588022868405711075E-15, 31.96824583655184782 ) ) ;
#23 = PERSON_AND_ORGANIZATION ( #185, #139 ) ;
#24 = VERTEX_POINT ( 'NONE', #192 ) ;
#25 = TOROIDAL_SURFACE ( 'NONE', #45, 6.750000000000001776, 2.000000000000001776 ) ;
#26 = APPROVAL_ROLE ( '' ) ;
#27 = CLOSED_SHELL ( 'NONE', ( #174, #110, #222 ) ) ;
#28 = CC_DESIGN_DATE_AND_TIME_ASSIGNMENT ( #178, #86, ( #135 ) ) ;
#29 = ORIENTED_EDGE ( 'NONE', *, *, #32, .T. ) ;
#30 = EDGE_LOOP ( 'NONE', ( #194 ) ) ;
#31 = APPROVAL_PERSON_ORGANIZATION ( #87, #146, #26 ) ;
#32 = EDGE_CURVE ( 'NONE', #61, #61, #85, .T. ) ;
#33 = CARTESIAN_POINT ( 'NONE',  ( 1.745740669421563522E-14, -1.734723475976807094E-15, 4.999999999999991118 ) ) ;
#34 = FACE_OUTER_BOUND ( 'NONE', #219, .T. ) ;
#35 = CARTESIAN_POINT ( 'NONE',  ( 3.840629472727446943E-13, 3.374459510989160459E-32, 110.0000000000000000 ) ) ;
#36 = APPROVAL ( #105, 'UNSPECIFIED' ) ;
#37 = FACE_BOUND ( 'NONE', #120, .T. ) ;
#38 = APPROVAL_DATE_TIME ( #193, #146 ) ;
#39 = FACE_OUTER_BOUND ( 'NONE', #68, .T. ) ;
#40 = PRODUCT ( '61363', '61363', '', ( #218 ) ) ;
#41 = APPROVAL_ROLE ( '' ) ;
#42 = DIRECTION ( 'NONE',  ( -1.000000000000000000, 1.062211776130383782E-32, 3.491481338843133355E-15 ) ) ;
#43 = PERSON_AND_ORGANIZATION ( #185, #139 ) ;
#44 = CARTESIAN_POINT ( 'NONE',  ( 3.823172066033230330E-13, -1.340988245066351608E-14, 109.4999999999999858 ) ) ;
#45 = AXIS2_PLACEMENT_3D ( 'NONE', #188, #207, #20 ) ;
#46 = DIRECTION ( 'NONE',  ( 1.000000000000000000, 0.0000000000000000000, 0.0000000000000000000 ) ) ;
#47 = EDGE_CURVE ( 'NONE', #113, #113, #166, .T. ) ;
#48 = AXIS2_PLACEMENT_3D ( 'NONE', #183, #55, #126 ) ;
#49 = PERSON_AND_ORGANIZATION_ROLE ( 'design_owner' ) ;
#50 = ORIENTED_EDGE ( 'NONE', *, *, #201, .F. ) ;
#51 = EDGE_LOOP ( 'NONE', ( #161 ) ) ;
#52 = AXIS2_PLACEMENT_3D ( 'NONE', #144, #102, #132 ) ;
#53 = DATE_AND_TIME ( #96, #179 ) ;
#54 = FACE_OUTER_BOUND ( 'NONE', #235, .T. ) ;
#55 = DIRECTION ( 'NONE',  ( -3.491481338843133355E-15, 1.224646799147353207E-16, -1.000000000000000000 ) ) ;
#56 = FACE_OUTER_BOUND ( 'NONE', #116, .T. ) ;
#57 = VERTEX_POINT ( 'NONE', #240 ) ;
#58 = DIRECTION ( 'NONE',  ( 3.491481338843133355E-15, -1.224646799147353454E-16, 1.000000000000000000 ) ) ;
#59 = CARTESIAN_POINT ( 'NONE',  ( 3.823172066033230330E-13, -1.340988245066351608E-14, 109.4999999999999858 ) ) ;
#60 = ADVANCED_FACE ( 'NONE', ( #165 ), #95, .F. ) ;
#61 = VERTEX_POINT ( 'NONE', #212 ) ;
#62 = APPROVAL_DATE_TIME ( #159, #36 ) ;
#63 =( NAMED_UNIT ( * ) SI_UNIT ( $, .STERADIAN. ) SOLID_ANGLE_UNIT ( ) );
#64 = EDGE_LOOP ( 'NONE', ( #8 ) ) ;
#65 = AXIS2_PLACEMENT_3D ( 'NONE', #59, #130, #210 ) ;
#66 = ADVANCED_FACE ( 'NONE', ( #98, #186 ), #25, .F. ) ;
#67 = CLOSED_SHELL ( 'NONE', ( #190, #89, #60, #66, #216, #99 ) ) ;
#68 = EDGE_LOOP ( 'NONE', ( #50 ) ) ;
#69 = ORIENTED_EDGE ( 'NONE', *, *, #16, .T. ) ;
#70 = APPROVAL_DATE_TIME ( #53, #93 ) ;
#71 = CC_DESIGN_APPROVAL ( #146, ( #176 ) ) ;
#72 = DIRECTION ( 'NONE',  ( 0.0000000000000000000, 1.000000000000000000, 0.0000000000000000000 ) ) ;
#73 = CC_DESIGN_PERSON_AND_ORGANIZATION_ASSIGNMENT ( #224, #168, ( #135 ) ) ;
#74 = APPROVAL_ROLE ( '' ) ;
#75 = FACE_OUTER_BOUND ( 'NONE', #214, .T. ) ;
#76 = VERTEX_POINT ( 'NONE', #187 ) ;
#77 = CYLINDRICAL_SURFACE ( 'NONE', #140, 4.999999999999995559 ) ;
#78 = FACE_OUTER_BOUND ( 'NONE', #30, .T. ) ;
#79 = LOCAL_TIME ( 8, 49, 30.00000000000000000, #117 ) ;
#80 = PERSON_AND_ORGANIZATION_ROLE ( 'creator' ) ;
#81 = VERTEX_POINT ( 'NONE', #229 ) ;
#82 = APPROVAL_STATUS ( 'not_yet_approved' ) ;
#83 = UNCERTAINTY_MEASURE_WITH_UNIT (LENGTH_MEASURE( 1.000000000000000082E-05 ), #150, 'distance_accuracy_value', 'NONE');
#84 = APPLICATION_PROTOCOL_DEFINITION ( 'international standard', 'config_control_design', 1994, #88 ) ;
#85 = CIRCLE ( 'NONE', #108, 4.750000000000000888 ) ;
#86 = DATE_TIME_ROLE ( 'creation_date' ) ;
#87 = PERSON_AND_ORGANIZATION ( #185, #139 ) ;
#88 = APPLICATION_CONTEXT ( 'configuration controlled 3d designs of mechanical parts and assemblies' ) ;
#89 = ADVANCED_FACE ( 'NONE', ( #78, #37 ), #217, .T. ) ;
#90 = ORIENTED_EDGE ( 'NONE', *, *, #16, .F. ) ;
#91 = DIRECTION ( 'NONE',  ( -3.491481338843133355E-15, 1.224646799147353207E-16, -1.000000000000000000 ) ) ;
#92 = PLANE ( 'NONE',  #104 ) ;
#93 = APPROVAL ( #234, 'UNSPECIFIED' ) ;
#94 = LOCAL_TIME ( 8, 49, 30.00000000000000000, #9 ) ;
#95 = PLANE ( 'NONE',  #238 ) ;
#96 = CALENDAR_DATE ( 2021, 22, 11 ) ;
#97 = DIRECTION ( 'NONE',  ( 3.491481338843133355E-15, -1.224646799147353454E-16, 1.000000000000000000 ) ) ;
#98 = FACE_OUTER_BOUND ( 'NONE', #15, .T. ) ;
#99 = ADVANCED_FACE ( 'NONE', ( #169 ), #123, .F. ) ;
#100 = AXIS2_PLACEMENT_3D ( 'NONE', #197, #202, #46 ) ;
#101 = CC_DESIGN_DATE_AND_TIME_ASSIGNMENT ( #131, #177, ( #198 ) ) ;
#102 = DIRECTION ( 'NONE',  ( 3.491481338843133355E-15, -1.224646799147353454E-16, 1.000000000000000000 ) ) ;
#103 = PERSON_AND_ORGANIZATION_ROLE ( 'design_supplier' ) ;
#104 = AXIS2_PLACEMENT_3D ( 'NONE', #237, #206, #241 ) ;
#105 = APPROVAL_STATUS ( 'not_yet_approved' ) ;
#106 = ORIENTED_EDGE ( 'NONE', *, *, #47, .T. ) ;
#107 = DIRECTION ( 'NONE',  ( -3.491481338843133355E-15, 1.224646799147353207E-16, -1.000000000000000000 ) ) ;
#108 = AXIS2_PLACEMENT_3D ( 'NONE', #148, #97, #21 ) ;
#109 = DIRECTION ( 'NONE',  ( 4.275831445896958607E-31, 1.000000000000000000, 1.224646799147353207E-16 ) ) ;
#110 = ADVANCED_FACE ( 'NONE', ( #34 ), #92, .T. ) ;
#111 = DIRECTION ( 'NONE',  ( 3.491481338843133355E-15, -1.224646799147353454E-16, 1.000000000000000000 ) ) ;
#112 = FACE_OUTER_BOUND ( 'NONE', #180, .T. ) ;
#113 = VERTEX_POINT ( 'NONE', #211 ) ;
#114 = LOCAL_TIME ( 8, 49, 30.00000000000000000, #213 ) ;
#115 = CC_DESIGN_PERSON_AND_ORGANIZATION_ASSIGNMENT ( #143, #49, ( #40 ) ) ;
#116 = EDGE_LOOP ( 'NONE', ( #142 ) ) ;
#117 = COORDINATED_UNIVERSAL_TIME_OFFSET ( 1, 0, .AHEAD. ) ;
#118 = CC_DESIGN_SECURITY_CLASSIFICATION ( #198, ( #176 ) ) ;
#119 = ORIENTED_EDGE ( 'NONE', *, *, #201, .T. ) ;
#120 = EDGE_LOOP ( 'NONE', ( #106 ) ) ;
#121 = AXIS2_PLACEMENT_3D ( 'NONE', #171, #3, #122 ) ;
#122 = DIRECTION ( 'NONE',  ( 0.0000000000000000000, 1.000000000000000000, 0.0000000000000000000 ) ) ;
#123 = PLANE ( 'NONE',  #155 ) ;
#124 = MANIFOLD_SOLID_BREP ( 'Corps-Déplacer/Copier1[1]', #67 ) ;
#125 = PERSON_AND_ORGANIZATION ( #185, #139 ) ;
#126 = DIRECTION ( 'NONE',  ( 0.0000000000000000000, 1.000000000000000000, 0.0000000000000000000 ) ) ;
#127 = AXIS2_PLACEMENT_3D ( 'NONE', #17, #107, #208 ) ;
#128 = DIRECTION ( 'NONE',  ( -6.162975822039166991E-31, -1.000000000000000000, -1.734723475976810546E-16 ) ) ;
#129 = PRODUCT_DEFINITION_SHAPE ( 'NONE', 'NONE',  #135 ) ;
#130 = DIRECTION ( 'NONE',  ( 3.491481338843133355E-15, -1.224646799147353454E-16, 1.000000000000000000 ) ) ;
#131 = DATE_AND_TIME ( #196, #14 ) ;
#132 = DIRECTION ( 'NONE',  ( 0.0000000000000000000, -1.000000000000000000, 0.0000000000000000000 ) ) ;
#133 = CALENDAR_DATE ( 2021, 22, 11 ) ;
#134 = CIRCLE ( 'NONE', #19, 4.999999999999995559 ) ;
#135 = PRODUCT_DEFINITION ( 'UNKNOWN', '', #176, #6 ) ;
#136 = MANIFOLD_SOLID_BREP ( 'Corps-Déplacer/Copier1[2]', #27 ) ;
#137 = SHAPE_DEFINITION_REPRESENTATION ( #129, #199 ) ;
#138 = ORIENTED_EDGE ( 'NONE', *, *, #157, .F. ) ;
#139 = ORGANIZATION ( 'UNSPECIFIED', 'UNSPECIFIED', '' ) ;
#140 = AXIS2_PLACEMENT_3D ( 'NONE', #243, #149, #226 ) ;
#141 = CC_DESIGN_PERSON_AND_ORGANIZATION_ASSIGNMENT ( #23, #103, ( #176 ) ) ;
#142 = ORIENTED_EDGE ( 'NONE', *, *, #10, .T. ) ;
#143 = PERSON_AND_ORGANIZATION ( #185, #139 ) ;
#144 = CARTESIAN_POINT ( 'NONE',  ( 5.237222008264700033E-14, -1.836970198721027222E-15, 15.00000000000000000 ) ) ;
#145 = CIRCLE ( 'NONE', #48, 4.999999999999990230 ) ;
#146 = APPROVAL ( #82, 'UNSPECIFIED' ) ;
#147 = DIRECTION ( 'NONE',  ( -3.491481338843133355E-15, 1.224646799147353207E-16, -1.000000000000000000 ) ) ;
#148 = CARTESIAN_POINT ( 'NONE',  ( 1.082359215041371340E-13, -3.796405077356792748E-15, 31.00000000000000000 ) ) ;
#149 = DIRECTION ( 'NONE',  ( -3.491481338843133355E-15, 1.224646799147353207E-16, -1.000000000000000000 ) ) ;
#150 =( LENGTH_UNIT ( ) NAMED_UNIT ( * ) SI_UNIT ( .MILLI., .METRE. ) );
#151 = AXIS2_PLACEMENT_3D ( 'NONE', #44, #91, #164 ) ;
#152 = CARTESIAN_POINT ( 'NONE',  ( 1.745740669421563207E-14, -6.123233995736721909E-16, 4.999999999999990230 ) ) ;
#153 = DIRECTION ( 'NONE',  ( 6.162975822039164364E-31, 1.000000000000000000, 1.734723475976809806E-16 ) ) ;
#154 = COORDINATED_UNIVERSAL_TIME_OFFSET ( 1, 0, .AHEAD. ) ;
#155 = AXIS2_PLACEMENT_3D ( 'NONE', #189, #223, #182 ) ;
#156 = CALENDAR_DATE ( 2021, 22, 11 ) ;
#157 = EDGE_CURVE ( 'NONE', #57, #57, #134, .T. ) ;
#158 = EDGE_LOOP ( 'NONE', ( #138 ) ) ;
#159 = DATE_AND_TIME ( #133, #94 ) ;
#160 = CIRCLE ( 'NONE', #52, 4.750000000000000888 ) ;
#161 = ORIENTED_EDGE ( 'NONE', *, *, #231, .F. ) ;
#162 = ORIENTED_EDGE ( 'NONE', *, *, #32, .F. ) ;
#163 = CIRCLE ( 'NONE', #181, 4.999999999999990230 ) ;
#164 = DIRECTION ( 'NONE',  ( 0.0000000000000000000, 1.000000000000000000, 0.0000000000000000000 ) ) ;
#165 = FACE_OUTER_BOUND ( 'NONE', #64, .T. ) ;
#166 = CIRCLE ( 'NONE', #127, 4.500000000000002665 ) ;
#167 = CARTESIAN_POINT ( 'NONE',  ( 0.0000000000000000000, 0.0000000000000000000, 0.0000000000000000000 ) ) ;
#168 = PERSON_AND_ORGANIZATION_ROLE ( 'creator' ) ;
#169 = FACE_OUTER_BOUND ( 'NONE', #51, .T. ) ;
#170 = VERTEX_POINT ( 'NONE', #242 ) ;
#171 = CARTESIAN_POINT ( 'NONE',  ( 3.840629472727446943E-13, -1.347111479062088523E-14, 110.0000000000000000 ) ) ;
#172 =( NAMED_UNIT ( * ) PLANE_ANGLE_UNIT ( ) SI_UNIT ( $, .RADIAN. ) );
#173 = DIRECTION ( 'NONE',  ( -3.491481338843133355E-15, 1.224646799147353207E-16, -1.000000000000000000 ) ) ;
#174 = ADVANCED_FACE ( 'NONE', ( #225, #112 ), #18, .T. ) ;
#175 = PERSON_AND_ORGANIZATION ( #185, #139 ) ;
#176 = PRODUCT_DEFINITION_FORMATION_WITH_SPECIFIED_SOURCE ( 'ANY', '', #40, .NOT_KNOWN. ) ;
#177 = DATE_TIME_ROLE ( 'classification_date' ) ;
#178 = DATE_AND_TIME ( #156, #114 ) ;
#179 = LOCAL_TIME ( 8, 49, 30.00000000000000000, #205 ) ;
#180 = EDGE_LOOP ( 'NONE', ( #119 ) ) ;
#181 = AXIS2_PLACEMENT_3D ( 'NONE', #152, #58, #128 ) ;
#182 = DIRECTION ( 'NONE',  ( -4.275831445896958607E-31, -1.000000000000000000, -1.224646799147353207E-16 ) ) ;
#183 = CARTESIAN_POINT ( 'NONE',  ( 5.237222008264700033E-14, -1.836970198721029589E-15, 15.00000000000000000 ) ) ;
#184 = APPROVAL_PERSON_ORGANIZATION ( #4, #36, #41 ) ;
#185 = PERSON ( 'UNSPECIFIED', 'UNSPECIFIED', 'UNSPECIFIED', ('UNSPECIFIED'), ('UNSPECIFIED'), ('UNSPECIFIED') ) ;
#186 = FACE_OUTER_BOUND ( 'NONE', #158, .T. ) ;
#187 = CARTESIAN_POINT ( 'NONE',  ( 1.745740669421562891E-14, -4.999999999999991118, 4.999999999999989342 ) ) ;
#188 = CARTESIAN_POINT ( 'NONE',  ( 1.082359215041371340E-13, -3.469446951953614189E-15, 31.00000000000000000 ) ) ;
#189 = CARTESIAN_POINT ( 'NONE',  ( 5.237222008264700033E-14, 3.749399456654634714E-32, 15.00000000000000000 ) ) ;
#190 = ADVANCED_FACE ( 'NONE', ( #75, #56 ), #77, .T. ) ;
#191 = APPROVAL_PERSON_ORGANIZATION ( #125, #93, #74 ) ;
#192 = CARTESIAN_POINT ( 'NONE',  ( 3.823172066033230330E-13, 4.999999999999988454, 109.4999999999999858 ) ) ;
#193 = DATE_AND_TIME ( #215, #79 ) ;
#194 = ORIENTED_EDGE ( 'NONE', *, *, #10, .F. ) ;
#195 = AXIS2_PLACEMENT_3D ( 'NONE', #33, #42, #153 ) ;
#196 = CALENDAR_DATE ( 2021, 22, 11 ) ;
#197 = CARTESIAN_POINT ( 'NONE',  ( 0.0000000000000000000, 0.0000000000000000000, 0.0000000000000000000 ) ) ;
#198 = SECURITY_CLASSIFICATION ( '', '', #230 ) ;
#199 = ADVANCED_BREP_SHAPE_REPRESENTATION ( '61363', ( #124, #136, #100 ), #1 ) ;
#200 = APPLICATION_CONTEXT ( 'configuration controlled 3d designs of mechanical parts and assemblies' ) ;
#201 = EDGE_CURVE ( 'NONE', #76, #76, #163, .T. ) ;
#202 = DIRECTION ( 'NONE',  ( 0.0000000000000000000, 0.0000000000000000000, 1.000000000000000000 ) ) ;
#203 = ORIENTED_EDGE ( 'NONE', *, *, #157, .T. ) ;
#204 = CIRCLE ( 'NONE', #151, 5.000000000000001776 ) ;
#205 = COORDINATED_UNIVERSAL_TIME_OFFSET ( 1, 0, .AHEAD. ) ;
#206 = DIRECTION ( 'NONE',  ( 3.491481338843133355E-15, -1.224646799147353207E-16, 1.000000000000000000 ) ) ;
#207 = DIRECTION ( 'NONE',  ( 3.491481338843133355E-15, -1.224646799147353454E-16, 1.000000000000000000 ) ) ;
#208 = DIRECTION ( 'NONE',  ( 0.0000000000000000000, 1.000000000000000000, 0.0000000000000000000 ) ) ;
#209 = FACE_OUTER_BOUND ( 'NONE', #233, .T. ) ;
#210 = DIRECTION ( 'NONE',  ( 0.0000000000000000000, -1.000000000000000000, 0.0000000000000000000 ) ) ;
#211 = CARTESIAN_POINT ( 'NONE',  ( 3.840629472727446943E-13, 4.499999999999988454, 110.0000000000000000 ) ) ;
#212 = CARTESIAN_POINT ( 'NONE',  ( 1.082359215041371340E-13, -4.750000000000004441, 31.00000000000000000 ) ) ;
#213 = COORDINATED_UNIVERSAL_TIME_OFFSET ( 1, 0, .AHEAD. ) ;
#214 = EDGE_LOOP ( 'NONE', ( #203 ) ) ;
#215 = CALENDAR_DATE ( 2021, 22, 11 ) ;
#216 = ADVANCED_FACE ( 'NONE', ( #209, #54 ), #227, .T. ) ;
#217 = CONICAL_SURFACE ( 'NONE', #121, 4.500000000000002665, 0.7853981633974335130 ) ;
#218 = MECHANICAL_CONTEXT ( 'NONE', #88, 'mechanical' ) ;
#219 = EDGE_LOOP ( 'NONE', ( #90 ) ) ;
#220 = APPLICATION_PROTOCOL_DEFINITION ( 'international standard', 'config_control_design', 1994, #200 ) ;
#221 = SPHERICAL_SURFACE ( 'NONE', #195, 4.999999999999992006 ) ;
#222 = ADVANCED_FACE ( 'NONE', ( #39 ), #221, .T. ) ;
#223 = DIRECTION ( 'NONE',  ( 3.491481338843133355E-15, -1.224646799147353207E-16, 1.000000000000000000 ) ) ;
#224 = PERSON_AND_ORGANIZATION ( #185, #139 ) ;
#225 = FACE_OUTER_BOUND ( 'NONE', #12, .T. ) ;
#226 = DIRECTION ( 'NONE',  ( 4.275831445896959482E-31, 1.000000000000000000, 1.224646799147353454E-16 ) ) ;
#227 = CYLINDRICAL_SURFACE ( 'NONE', #65, 4.750000000000000888 ) ;
#228 = PERSON_AND_ORGANIZATION_ROLE ( 'classification_officer' ) ;
#229 = CARTESIAN_POINT ( 'NONE',  ( 5.237222008264700033E-14, 4.999999999999988454, 15.00000000000000000 ) ) ;
#230 = SECURITY_CLASSIFICATION_LEVEL ( 'unclassified' ) ;
#231 = EDGE_CURVE ( 'NONE', #170, #170, #160, .T. ) ;
#232 = CC_DESIGN_APPROVAL ( #36, ( #198 ) ) ;
#233 = EDGE_LOOP ( 'NONE', ( #162 ) ) ;
#234 = APPROVAL_STATUS ( 'not_yet_approved' ) ;
#235 = EDGE_LOOP ( 'NONE', ( #13 ) ) ;
#236 = PRODUCT_RELATED_PRODUCT_CATEGORY ( 'detail', '', ( #40 ) ) ;
#237 = CARTESIAN_POINT ( 'NONE',  ( 5.237222008264700033E-14, 3.749399456654634714E-32, 15.00000000000000000 ) ) ;
#238 = AXIS2_PLACEMENT_3D ( 'NONE', #35, #173, #109 ) ;
#239 = DIRECTION ( 'NONE',  ( 4.275831445896958607E-31, 1.000000000000000000, 1.224646799147353207E-16 ) ) ;
#240 = CARTESIAN_POINT ( 'NONE',  ( 1.116165337738704729E-13, 4.999999999999992006, 31.96824583655184782 ) ) ;
#241 = DIRECTION ( 'NONE',  ( -4.275831445896958607E-31, -1.000000000000000000, -1.224646799147353207E-16 ) ) ;
#242 = CARTESIAN_POINT ( 'NONE',  ( 5.237222008264700033E-14, -4.750000000000002665, 15.00000000000000000 ) ) ;
#243 = CARTESIAN_POINT ( 'NONE',  ( 0.0000000000000000000, 0.0000000000000000000, 0.0000000000000000000 ) ) ;
ENDSEC;
END-ISO-10303-21;
