ISO-10303-21;
HEADER;
FILE_DESCRIPTION (( 'STEP AP203' ),
    '1' );
FILE_NAME ('61362.step',
    '2021-11-22T07:49:30',
    ( '' ),
    ( '' ),
    'SwSTEP 2.0',
    'SolidWorks 2019',
    '' );
FILE_SCHEMA (( 'CONFIG_CONTROL_DESIGN' ));
ENDSEC;

DATA;
#1 = PERSON_AND_ORGANIZATION ( #68, #96 ) ;
#2 = PERSON_AND_ORGANIZATION_ROLE ( 'design_supplier' ) ;
#3 = ORIENTED_EDGE ( 'NONE', *, *, #92, .F. ) ;
#4 = ORIENTED_EDGE ( 'NONE', *, *, #231, .T. ) ;
#5 = DESIGN_CONTEXT ( 'detailed design', #113, 'design' ) ;
#6 = PERSON_AND_ORGANIZATION_ROLE ( 'creator' ) ;
#7 = EDGE_LOOP ( 'NONE', ( #138 ) ) ;
#8 = LOCAL_TIME ( 8, 49, 30.00000000000000000, #174 ) ;
#9 = AXIS2_PLACEMENT_3D ( 'NONE', #44, #11, #119 ) ;
#10 = CONICAL_SURFACE ( 'NONE', #212, 3.500000000000001776, 0.7853981633974471688 ) ;
#11 = DIRECTION ( 'NONE',  ( -3.491481338843133355E-15, 1.224646799147353454E-16, -1.000000000000000000 ) ) ;
#12 = ADVANCED_FACE ( 'NONE', ( #215, #120 ), #213, .T. ) ;
#13 = CARTESIAN_POINT ( 'NONE',  ( 4.189777606611758764E-14, -1.469576158976823750E-15, 11.99999999999999645 ) ) ;
#14 = DIRECTION ( 'NONE',  ( 3.491481338843133355E-15, -1.224646799147353454E-16, 1.000000000000000000 ) ) ;
#15 = LOCAL_TIME ( 8, 49, 30.00000000000000000, #227 ) ;
#16 = PLANE ( 'NONE',  #129 ) ;
#17 = DIRECTION ( 'NONE',  ( -4.275831445896959482E-31, -1.000000000000000000, -1.224646799147353454E-16 ) ) ;
#18 = DIRECTION ( 'NONE',  ( -3.491481338843133355E-15, 1.224646799147353454E-16, -1.000000000000000000 ) ) ;
#19 = CC_DESIGN_PERSON_AND_ORGANIZATION_ASSIGNMENT ( #225, #2, ( #195 ) ) ;
#20 = PERSON_AND_ORGANIZATION ( #68, #96 ) ;
#21 = CARTESIAN_POINT ( 'NONE',  ( 3.142333204958819767E-13, 3.499999999999991118, 90.00000000000000000 ) ) ;
#22 =( NAMED_UNIT ( * ) PLANE_ANGLE_UNIT ( ) SI_UNIT ( $, .RADIAN. ) );
#23 = AXIS2_PLACEMENT_3D ( 'NONE', #125, #18, #49 ) ;
#24 = COORDINATED_UNIVERSAL_TIME_OFFSET ( 1, 0, .AHEAD. ) ;
#25 = AXIS2_PLACEMENT_3D ( 'NONE', #161, #237, #181 ) ;
#26 = ORIENTED_EDGE ( 'NONE', *, *, #182, .T. ) ;
#27 = MANIFOLD_SOLID_BREP ( 'Corps-Déplacer/Copier1[1]', #178 ) ;
#28 = MANIFOLD_SOLID_BREP ( 'Corps-Déplacer/Copier1[2]', #210 ) ;
#29 = EDGE_LOOP ( 'NONE', ( #209 ) ) ;
#30 = CARTESIAN_POINT ( 'NONE',  ( 4.189777606611760026E-14, 2.999519565323708647E-32, 12.00000000000000000 ) ) ;
#31 = ORIENTED_EDGE ( 'NONE', *, *, #231, .F. ) ;
#32 = AXIS2_PLACEMENT_3D ( 'NONE', #157, #192, #43 ) ;
#33 = CC_DESIGN_DATE_AND_TIME_ASSIGNMENT ( #131, #130, ( #66 ) ) ;
#34 = DIRECTION ( 'NONE',  ( 0.0000000000000000000, -1.000000000000000000, 0.0000000000000000000 ) ) ;
#35 = EDGE_CURVE ( 'NONE', #67, #67, #104, .T. ) ;
#36 = MECHANICAL_CONTEXT ( 'NONE', #211, 'mechanical' ) ;
#37 = PERSON_AND_ORGANIZATION ( #68, #96 ) ;
#38 = CARTESIAN_POINT ( 'NONE',  ( 4.189777606611760026E-14, 3.999999999999990674, 12.00000000000000000 ) ) ;
#39 = ADVANCED_BREP_SHAPE_REPRESENTATION ( '61362', ( #27, #28, #159 ), #171 ) ;
#40 = EDGE_LOOP ( 'NONE', ( #4 ) ) ;
#41 = UNCERTAINTY_MEASURE_WITH_UNIT (LENGTH_MEASURE( 1.000000000000000082E-05 ), #109, 'distance_accuracy_value', 'NONE');
#42 = EDGE_LOOP ( 'NONE', ( #139 ) ) ;
#43 = DIRECTION ( 'NONE',  ( 0.0000000000000000000, -1.000000000000000000, 0.0000000000000000000 ) ) ;
#44 = CARTESIAN_POINT ( 'NONE',  ( 0.0000000000000000000, 0.0000000000000000000, 0.0000000000000000000 ) ) ;
#45 = EDGE_LOOP ( 'NONE', ( #98 ) ) ;
#46 = CC_DESIGN_PERSON_AND_ORGANIZATION_ASSIGNMENT ( #154, #76, ( #66 ) ) ;
#47 = CARTESIAN_POINT ( 'NONE',  ( 8.728703347107833388E-14, -3.469446951953614189E-15, 25.00000000000000000 ) ) ;
#48 = DIRECTION ( 'NONE',  ( 3.491481338843133355E-15, -1.224646799147353454E-16, 1.000000000000000000 ) ) ;
#49 = DIRECTION ( 'NONE',  ( 0.0000000000000000000, 1.000000000000000000, 0.0000000000000000000 ) ) ;
#50 = DIRECTION ( 'NONE',  ( 1.000000000000000000, 0.0000000000000000000, 0.0000000000000000000 ) ) ;
#51 = LOCAL_TIME ( 8, 49, 30.00000000000000000, #24 ) ;
#52 = CARTESIAN_POINT ( 'NONE',  ( 0.0000000000000000000, 0.0000000000000000000, 0.0000000000000000000 ) ) ;
#53 = PRODUCT_DEFINITION_SHAPE ( 'NONE', 'NONE',  #185 ) ;
#54 = CALENDAR_DATE ( 2021, 22, 11 ) ;
#55 = APPROVAL ( #190, 'UNSPECIFIED' ) ;
#56 = DATE_TIME_ROLE ( 'creation_date' ) ;
#57 = APPROVAL_ROLE ( '' ) ;
#58 = EDGE_LOOP ( 'NONE', ( #189 ) ) ;
#59 = PERSON_AND_ORGANIZATION ( #68, #96 ) ;
#60 = DIRECTION ( 'NONE',  ( -4.275831445896959482E-31, -1.000000000000000000, -1.224646799147353454E-16 ) ) ;
#61 = DIRECTION ( 'NONE',  ( 4.275831445896959482E-31, 1.000000000000000000, 1.224646799147353454E-16 ) ) ;
#62 = DIRECTION ( 'NONE',  ( 0.0000000000000000000, 1.000000000000000000, 0.0000000000000000000 ) ) ;
#63 = APPROVAL ( #108, 'UNSPECIFIED' ) ;
#64 = PLANE ( 'NONE',  #147 ) ;
#65 = DIRECTION ( 'NONE',  ( 3.491481338843133355E-15, -1.224646799147353454E-16, 1.000000000000000000 ) ) ;
#66 = SECURITY_CLASSIFICATION ( '', '', #77 ) ;
#67 = VERTEX_POINT ( 'NONE', #142 ) ;
#68 = PERSON ( 'UNSPECIFIED', 'UNSPECIFIED', 'UNSPECIFIED', ('UNSPECIFIED'), ('UNSPECIFIED'), ('UNSPECIFIED') ) ;
#69 = FACE_OUTER_BOUND ( 'NONE', #40, .T. ) ;
#70 = APPLICATION_PROTOCOL_DEFINITION ( 'international standard', 'config_control_design', 1994, #113 ) ;
#71 = DIRECTION ( 'NONE',  ( -3.491481338843133355E-15, 1.224646799147353454E-16, -1.000000000000000000 ) ) ;
#72 = ADVANCED_FACE ( 'NONE', ( #217 ), #16, .T. ) ;
#73 = VERTEX_POINT ( 'NONE', #21 ) ;
#74 = EDGE_CURVE ( 'NONE', #127, #127, #229, .T. ) ;
#75 = DATE_AND_TIME ( #168, #100 ) ;
#76 = PERSON_AND_ORGANIZATION_ROLE ( 'classification_officer' ) ;
#77 = SECURITY_CLASSIFICATION_LEVEL ( 'unclassified' ) ;
#78 = ORIENTED_EDGE ( 'NONE', *, *, #169, .T. ) ;
#79 = CALENDAR_DATE ( 2021, 22, 11 ) ;
#80 = APPROVAL_ROLE ( '' ) ;
#81 = EDGE_LOOP ( 'NONE', ( #78 ) ) ;
#82 = FACE_OUTER_BOUND ( 'NONE', #150, .T. ) ;
#83 = DIRECTION ( 'NONE',  ( -3.491481338843133355E-15, 1.224646799147353454E-16, -1.000000000000000000 ) ) ;
#84 = DIRECTION ( 'NONE',  ( 3.491481338843133355E-15, -1.224646799147353454E-16, 1.000000000000000000 ) ) ;
#85 = TOROIDAL_SURFACE ( 'NONE', #126, 5.750000000000001776, 2.000000000000001776 ) ;
#86 = DIRECTION ( 'NONE',  ( -1.000000000000000000, 1.327764720162979865E-32, 3.491481338843133355E-15 ) ) ;
#87 = CARTESIAN_POINT ( 'NONE',  ( 1.396592535537250976E-14, -1.734723475976807094E-15, 3.999999999999993339 ) ) ;
#88 = ADVANCED_FACE ( 'NONE', ( #196 ), #64, .F. ) ;
#89 = CC_DESIGN_APPROVAL ( #214, ( #66 ) ) ;
#90 = FACE_OUTER_BOUND ( 'NONE', #175, .T. ) ;
#91 = AXIS2_PLACEMENT_3D ( 'NONE', #52, #219, #128 ) ;
#92 = EDGE_CURVE ( 'NONE', #203, #203, #106, .T. ) ;
#93 = ADVANCED_FACE ( 'NONE', ( #183 ), #102, .F. ) ;
#94 = PERSON_AND_ORGANIZATION ( #68, #96 ) ;
#95 = CALENDAR_DATE ( 2021, 22, 11 ) ;
#96 = ORGANIZATION ( 'UNSPECIFIED', 'UNSPECIFIED', '' ) ;
#97 = COORDINATED_UNIVERSAL_TIME_OFFSET ( 1, 0, .AHEAD. ) ;
#98 = ORIENTED_EDGE ( 'NONE', *, *, #155, .F. ) ;
#99 = EDGE_LOOP ( 'NONE', ( #140 ) ) ;
#100 = LOCAL_TIME ( 8, 49, 30.00000000000000000, #97 ) ;
#101 = FACE_OUTER_BOUND ( 'NONE', #173, .T. ) ;
#102 = PLANE ( 'NONE',  #197 ) ;
#103 = DIRECTION ( 'NONE',  ( 3.491481338843133355E-15, -1.224646799147353454E-16, 1.000000000000000000 ) ) ;
#104 = CIRCLE ( 'NONE', #207, 3.999999999999992450 ) ;
#105 = PRODUCT ( '61362', '61362', '', ( #36 ) ) ;
#106 = CIRCLE ( 'NONE', #242, 3.999999999999996447 ) ;
#107 = DIRECTION ( 'NONE',  ( 3.491481338843133355E-15, -1.224646799147353454E-16, 1.000000000000000000 ) ) ;
#108 = APPROVAL_STATUS ( 'not_yet_approved' ) ;
#109 =( LENGTH_UNIT ( ) NAMED_UNIT ( * ) SI_UNIT ( .MILLI., .METRE. ) );
#110 = CC_DESIGN_SECURITY_CLASSIFICATION ( #66, ( #195 ) ) ;
#111 = CIRCLE ( 'NONE', #226, 3.500000000000001776 ) ;
#112 = ADVANCED_FACE ( 'NONE', ( #234, #101 ), #160, .T. ) ;
#113 = APPLICATION_CONTEXT ( 'configuration controlled 3d designs of mechanical parts and assemblies' ) ;
#114 = EDGE_LOOP ( 'NONE', ( #3 ) ) ;
#115 = APPROVAL_DATE_TIME ( #208, #214 ) ;
#116 = CC_DESIGN_APPROVAL ( #63, ( #185 ) ) ;
#117 = CC_DESIGN_PERSON_AND_ORGANIZATION_ASSIGNMENT ( #170, #6, ( #195 ) ) ;
#118 = DIRECTION ( 'NONE',  ( 3.491481338843133355E-15, -1.224646799147353454E-16, 1.000000000000000000 ) ) ;
#119 = DIRECTION ( 'NONE',  ( 4.275831445896959482E-31, 1.000000000000000000, 1.224646799147353207E-16 ) ) ;
#120 = FACE_OUTER_BOUND ( 'NONE', #58, .T. ) ;
#121 = DIRECTION ( 'NONE',  ( -4.275831445896958607E-31, -1.000000000000000000, -1.224646799147353454E-16 ) ) ;
#122 = AXIS2_PLACEMENT_3D ( 'NONE', #87, #86, #124 ) ;
#123 = CARTESIAN_POINT ( 'NONE',  ( 9.066764574081167277E-14, -3.588022868405711075E-15, 25.96824583655184782 ) ) ;
#124 = DIRECTION ( 'NONE',  ( 7.703719777548956549E-31, 1.000000000000000000, 2.168404344971012566E-16 ) ) ;
#125 = CARTESIAN_POINT ( 'NONE',  ( 3.124875798264604164E-13, -1.096058885236881311E-14, 89.50000000000000000 ) ) ;
#126 = AXIS2_PLACEMENT_3D ( 'NONE', #47, #65, #121 ) ;
#127 = VERTEX_POINT ( 'NONE', #201 ) ;
#128 = DIRECTION ( 'NONE',  ( 4.275831445896958607E-31, 1.000000000000000000, 1.224646799147353454E-16 ) ) ;
#129 = AXIS2_PLACEMENT_3D ( 'NONE', #184, #103, #17 ) ;
#130 = DATE_TIME_ROLE ( 'classification_date' ) ;
#131 = DATE_AND_TIME ( #79, #187 ) ;
#132 = CC_DESIGN_PERSON_AND_ORGANIZATION_ASSIGNMENT ( #20, #240, ( #105 ) ) ;
#133 = APPROVAL_PERSON_ORGANIZATION ( #1, #55, #135 ) ;
#134 = AXIS2_PLACEMENT_3D ( 'NONE', #235, #48, #34 ) ;
#135 = APPROVAL_ROLE ( '' ) ;
#136 = CIRCLE ( 'NONE', #25, 3.999999999999992450 ) ;
#137 = SHAPE_DEFINITION_REPRESENTATION ( #53, #39 ) ;
#138 = ORIENTED_EDGE ( 'NONE', *, *, #35, .F. ) ;
#139 = ORIENTED_EDGE ( 'NONE', *, *, #92, .T. ) ;
#140 = ORIENTED_EDGE ( 'NONE', *, *, #74, .F. ) ;
#141 = CARTESIAN_POINT ( 'NONE',  ( 3.142333204958819767E-13, 2.624579619658237129E-32, 90.00000000000000000 ) ) ;
#142 = CARTESIAN_POINT ( 'NONE',  ( 1.396592535537249398E-14, -3.999999999999993339, 3.999999999999988898 ) ) ;
#143 = CYLINDRICAL_SURFACE ( 'NONE', #91, 3.999999999999996447 ) ;
#144 = FACE_OUTER_BOUND ( 'NONE', #7, .T. ) ;
#145 = VERTEX_POINT ( 'NONE', #200 ) ;
#146 = COORDINATED_UNIVERSAL_TIME_OFFSET ( 1, 0, .AHEAD. ) ;
#147 = AXIS2_PLACEMENT_3D ( 'NONE', #141, #83, #61 ) ;
#148 = APPROVAL_DATE_TIME ( #75, #55 ) ;
#149 = DATE_AND_TIME ( #54, #15 ) ;
#150 = EDGE_LOOP ( 'NONE', ( #152 ) ) ;
#151 = DATE_AND_TIME ( #95, #51 ) ;
#152 = ORIENTED_EDGE ( 'NONE', *, *, #74, .T. ) ;
#153 = APPROVAL_PERSON_ORGANIZATION ( #59, #214, #80 ) ;
#154 = PERSON_AND_ORGANIZATION ( #68, #96 ) ;
#155 = EDGE_CURVE ( 'NONE', #224, #224, #163, .T. ) ;
#156 = DIRECTION ( 'NONE',  ( 0.0000000000000000000, 1.000000000000000000, 0.0000000000000000000 ) ) ;
#157 = CARTESIAN_POINT ( 'NONE',  ( 8.728703347107830864E-14, -3.061616997868382254E-15, 24.99999999999999289 ) ) ;
#158 = CARTESIAN_POINT ( 'NONE',  ( 3.142333204958819767E-13, -1.102182119232618069E-14, 90.00000000000000000 ) ) ;
#159 = AXIS2_PLACEMENT_3D ( 'NONE', #239, #220, #50 ) ;
#160 = CYLINDRICAL_SURFACE ( 'NONE', #9, 3.999999999999991562 ) ;
#161 = CARTESIAN_POINT ( 'NONE',  ( 4.189777606611760026E-14, -1.469576158976824342E-15, 12.00000000000000000 ) ) ;
#162 = APPLICATION_PROTOCOL_DEFINITION ( 'international standard', 'config_control_design', 1994, #211 ) ;
#163 = CIRCLE ( 'NONE', #191, 3.750000000000000444 ) ;
#164 = CARTESIAN_POINT ( 'NONE',  ( 4.189777606611758764E-14, -3.750000000000001776, 11.99999999999999645 ) ) ;
#165 = CC_DESIGN_APPROVAL ( #55, ( #195 ) ) ;
#166 = CIRCLE ( 'NONE', #23, 4.000000000000000888 ) ;
#167 =( NAMED_UNIT ( * ) SI_UNIT ( $, .STERADIAN. ) SOLID_ANGLE_UNIT ( ) );
#168 = CALENDAR_DATE ( 2021, 22, 11 ) ;
#169 = EDGE_CURVE ( 'NONE', #241, #241, #136, .T. ) ;
#170 = PERSON_AND_ORGANIZATION ( #68, #96 ) ;
#171 =( GEOMETRIC_REPRESENTATION_CONTEXT ( 3 ) GLOBAL_UNCERTAINTY_ASSIGNED_CONTEXT ( ( #41 ) ) GLOBAL_UNIT_ASSIGNED_CONTEXT ( ( #109, #22, #167 ) ) REPRESENTATION_CONTEXT ( 'NONE', 'WORKASPACE' ) );
#172 = PRODUCT_RELATED_PRODUCT_CATEGORY ( 'detail', '', ( #105 ) ) ;
#173 = EDGE_LOOP ( 'NONE', ( #205 ) ) ;
#174 = COORDINATED_UNIVERSAL_TIME_OFFSET ( 1, 0, .AHEAD. ) ;
#175 = EDGE_LOOP ( 'NONE', ( #31 ) ) ;
#176 = ADVANCED_FACE ( 'NONE', ( #82, #198 ), #85, .F. ) ;
#177 = EDGE_LOOP ( 'NONE', ( #180 ) ) ;
#178 = CLOSED_SHELL ( 'NONE', ( #199, #236, #88, #176, #12, #93 ) ) ;
#179 = DIRECTION ( 'NONE',  ( -3.491481338843133355E-15, 1.224646799147353454E-16, -1.000000000000000000 ) ) ;
#180 = ORIENTED_EDGE ( 'NONE', *, *, #169, .F. ) ;
#181 = DIRECTION ( 'NONE',  ( 0.0000000000000000000, 1.000000000000000000, 0.0000000000000000000 ) ) ;
#182 = EDGE_CURVE ( 'NONE', #73, #73, #111, .T. ) ;
#183 = FACE_OUTER_BOUND ( 'NONE', #45, .T. ) ;
#184 = CARTESIAN_POINT ( 'NONE',  ( 4.189777606611760026E-14, 2.999519565323708647E-32, 12.00000000000000000 ) ) ;
#185 = PRODUCT_DEFINITION ( 'UNKNOWN', '', #195, #5 ) ;
#186 = DIRECTION ( 'NONE',  ( 0.0000000000000000000, 1.000000000000000000, 0.0000000000000000000 ) ) ;
#187 = LOCAL_TIME ( 8, 49, 30.00000000000000000, #146 ) ;
#188 = CC_DESIGN_DATE_AND_TIME_ASSIGNMENT ( #149, #56, ( #185 ) ) ;
#189 = ORIENTED_EDGE ( 'NONE', *, *, #155, .T. ) ;
#190 = APPROVAL_STATUS ( 'not_yet_approved' ) ;
#191 = AXIS2_PLACEMENT_3D ( 'NONE', #13, #84, #193 ) ;
#192 = DIRECTION ( 'NONE',  ( 3.491481338843133355E-15, -1.224646799147353454E-16, 1.000000000000000000 ) ) ;
#193 = DIRECTION ( 'NONE',  ( 0.0000000000000000000, -1.000000000000000000, 0.0000000000000000000 ) ) ;
#194 = CARTESIAN_POINT ( 'NONE',  ( 1.396592535537249713E-14, -4.898587196589401982E-16, 3.999999999999989786 ) ) ;
#195 = PRODUCT_DEFINITION_FORMATION_WITH_SPECIFIED_SOURCE ( 'ANY', '', #105, .NOT_KNOWN. ) ;
#196 = FACE_OUTER_BOUND ( 'NONE', #29, .T. ) ;
#197 = AXIS2_PLACEMENT_3D ( 'NONE', #30, #14, #60 ) ;
#198 = FACE_OUTER_BOUND ( 'NONE', #114, .T. ) ;
#199 = ADVANCED_FACE ( 'NONE', ( #232, #69 ), #143, .T. ) ;
#200 = CARTESIAN_POINT ( 'NONE',  ( 3.124875798264604164E-13, 3.999999999999989786, 89.50000000000000000 ) ) ;
#201 = CARTESIAN_POINT ( 'NONE',  ( 8.728703347107830864E-14, -3.750000000000002665, 24.99999999999999289 ) ) ;
#202 = CARTESIAN_POINT ( 'NONE',  ( 9.066764574081167277E-14, 3.999999999999993339, 25.96824583655184782 ) ) ;
#203 = VERTEX_POINT ( 'NONE', #202 ) ;
#204 = APPROVAL_STATUS ( 'not_yet_approved' ) ;
#205 = ORIENTED_EDGE ( 'NONE', *, *, #35, .T. ) ;
#206 = CALENDAR_DATE ( 2021, 22, 11 ) ;
#207 = AXIS2_PLACEMENT_3D ( 'NONE', #194, #118, #218 ) ;
#208 = DATE_AND_TIME ( #206, #8 ) ;
#209 = ORIENTED_EDGE ( 'NONE', *, *, #182, .F. ) ;
#210 = CLOSED_SHELL ( 'NONE', ( #112, #72, #216 ) ) ;
#211 = APPLICATION_CONTEXT ( 'configuration controlled 3d designs of mechanical parts and assemblies' ) ;
#212 = AXIS2_PLACEMENT_3D ( 'NONE', #223, #71, #186 ) ;
#213 = CYLINDRICAL_SURFACE ( 'NONE', #134, 3.750000000000000000 ) ;
#214 = APPROVAL ( #204, 'UNSPECIFIED' ) ;
#215 = FACE_OUTER_BOUND ( 'NONE', #99, .T. ) ;
#216 = ADVANCED_FACE ( 'NONE', ( #144 ), #238, .T. ) ;
#217 = FACE_OUTER_BOUND ( 'NONE', #177, .T. ) ;
#218 = DIRECTION ( 'NONE',  ( -7.703719777548958301E-31, -1.000000000000000000, -2.168404344971013059E-16 ) ) ;
#219 = DIRECTION ( 'NONE',  ( -3.491481338843133355E-15, 1.224646799147353454E-16, -1.000000000000000000 ) ) ;
#220 = DIRECTION ( 'NONE',  ( 0.0000000000000000000, 0.0000000000000000000, 1.000000000000000000 ) ) ;
#221 = FACE_BOUND ( 'NONE', #228, .T. ) ;
#222 = CC_DESIGN_PERSON_AND_ORGANIZATION_ASSIGNMENT ( #94, #243, ( #185 ) ) ;
#223 = CARTESIAN_POINT ( 'NONE',  ( 3.142333204958819767E-13, -1.102182119232618069E-14, 90.00000000000000000 ) ) ;
#224 = VERTEX_POINT ( 'NONE', #164 ) ;
#225 = PERSON_AND_ORGANIZATION ( #68, #96 ) ;
#226 = AXIS2_PLACEMENT_3D ( 'NONE', #158, #179, #156 ) ;
#227 = COORDINATED_UNIVERSAL_TIME_OFFSET ( 1, 0, .AHEAD. ) ;
#228 = EDGE_LOOP ( 'NONE', ( #26 ) ) ;
#229 = CIRCLE ( 'NONE', #32, 3.749999999999999556 ) ;
#230 = APPROVAL_DATE_TIME ( #151, #63 ) ;
#231 = EDGE_CURVE ( 'NONE', #145, #145, #166, .T. ) ;
#232 = FACE_OUTER_BOUND ( 'NONE', #42, .T. ) ;
#233 = APPROVAL_PERSON_ORGANIZATION ( #37, #63, #57 ) ;
#234 = FACE_OUTER_BOUND ( 'NONE', #81, .T. ) ;
#235 = CARTESIAN_POINT ( 'NONE',  ( 3.124875798264604164E-13, -1.096058885236881311E-14, 89.50000000000000000 ) ) ;
#236 = ADVANCED_FACE ( 'NONE', ( #90, #221 ), #10, .T. ) ;
#237 = DIRECTION ( 'NONE',  ( -3.491481338843133355E-15, 1.224646799147353454E-16, -1.000000000000000000 ) ) ;
#238 = SPHERICAL_SURFACE ( 'NONE', #122, 3.999999999999993339 ) ;
#239 = CARTESIAN_POINT ( 'NONE',  ( 0.0000000000000000000, 0.0000000000000000000, 0.0000000000000000000 ) ) ;
#240 = PERSON_AND_ORGANIZATION_ROLE ( 'design_owner' ) ;
#241 = VERTEX_POINT ( 'NONE', #38 ) ;
#242 = AXIS2_PLACEMENT_3D ( 'NONE', #123, #107, #62 ) ;
#243 = PERSON_AND_ORGANIZATION_ROLE ( 'creator' ) ;
ENDSEC;
END-ISO-10303-21;
