ISO-10303-21;
HEADER;
FILE_DESCRIPTION (( 'STEP AP203' ),
    '1' );
FILE_NAME ('61361.step',
    '2021-11-22T07:49:29',
    ( '' ),
    ( '' ),
    'SwSTEP 2.0',
    'SolidWorks 2019',
    '' );
FILE_SCHEMA (( 'CONFIG_CONTROL_DESIGN' ));
ENDSEC;

DATA;
#1 = TOROIDAL_SURFACE ( 'NONE', #160, 4.850000000000000533, 2.000000000000000888 ) ;
#2 = DATE_AND_TIME ( #172, #76 ) ;
#3 = COORDINATED_UNIVERSAL_TIME_OFFSET ( 1, 0, .AHEAD. ) ;
#4 = APPROVAL_STATUS ( 'not_yet_approved' ) ;
#5 = AXIS2_PLACEMENT_3D ( 'NONE', #65, #207, #66 ) ;
#6 = CIRCLE ( 'NONE', #166, 3.000000000000001332 ) ;
#7 = PLANE ( 'NONE',  #89 ) ;
#8 = ADVANCED_FACE ( 'NONE', ( #28 ), #29, .T. ) ;
#9 = DIRECTION ( 'NONE',  ( -3.491481338843133355E-15, 1.224646799147353207E-16, -1.000000000000000000 ) ) ;
#10 = EDGE_LOOP ( 'NONE', ( #25 ) ) ;
#11 = ORIENTED_EDGE ( 'NONE', *, *, #15, .T. ) ;
#12 = ORIENTED_EDGE ( 'NONE', *, *, #31, .F. ) ;
#13 = CARTESIAN_POINT ( 'NONE',  ( 6.633814543801950851E-14, -2.850000000000002309, 18.99999999999999645 ) ) ;
#14 = PRODUCT ( '61361', '61361', '', ( #37 ) ) ;
#15 = EDGE_CURVE ( 'NONE', #158, #158, #83, .T. ) ;
#16 = DIRECTION ( 'NONE',  ( 0.0000000000000000000, -1.000000000000000000, 0.0000000000000000000 ) ) ;
#17 = CARTESIAN_POINT ( 'NONE',  ( 6.633814543801952113E-14, -1.734723475976807094E-15, 19.00000000000000000 ) ) ;
#18 = AXIS2_PLACEMENT_3D ( 'NONE', #75, #54, #209 ) ;
#19 = CALENDAR_DATE ( 2021, 22, 11 ) ;
#20 = APPROVAL_ROLE ( '' ) ;
#21 = PERSON_AND_ORGANIZATION_ROLE ( 'creator' ) ;
#22 = DATE_TIME_ROLE ( 'classification_date' ) ;
#23 = AXIS2_PLACEMENT_3D ( 'NONE', #233, #120, #234 ) ;
#24 = DIRECTION ( 'NONE',  ( 3.491481338843133355E-15, -1.224646799147352961E-16, 1.000000000000000000 ) ) ;
#25 = ORIENTED_EDGE ( 'NONE', *, *, #70, .T. ) ;
#26 = AXIS2_PLACEMENT_3D ( 'NONE', #124, #30, #222 ) ;
#27 = PRODUCT_RELATED_PRODUCT_CATEGORY ( 'detail', '', ( #14 ) ) ;
#28 = FACE_OUTER_BOUND ( 'NONE', #155, .T. ) ;
#29 = PLANE ( 'NONE',  #48 ) ;
#30 = DIRECTION ( 'NONE',  ( 3.491481338843133355E-15, -1.224646799147352961E-16, 1.000000000000000000 ) ) ;
#31 = EDGE_CURVE ( 'NONE', #108, #108, #157, .T. ) ;
#32 = DIRECTION ( 'NONE',  ( -3.491481338843133355E-15, 1.224646799147353207E-16, -1.000000000000000000 ) ) ;
#33 = CONICAL_SURFACE ( 'NONE', #230, 2.500000000000002220, 0.7853981633974471688 ) ;
#34 = CYLINDRICAL_SURFACE ( 'NONE', #145, 2.850000000000000089 ) ;
#35 =( GEOMETRIC_REPRESENTATION_CONTEXT ( 3 ) GLOBAL_UNCERTAINTY_ASSIGNED_CONTEXT ( ( #193 ) ) GLOBAL_UNIT_ASSIGNED_CONTEXT ( ( #241, #206, #161 ) ) REPRESENTATION_CONTEXT ( 'NONE', 'WORKASPACE' ) );
#36 = PERSON_AND_ORGANIZATION ( #218, #64 ) ;
#37 = MECHANICAL_CONTEXT ( 'NONE', #191, 'mechanical' ) ;
#38 = CALENDAR_DATE ( 2021, 22, 11 ) ;
#39 = EDGE_LOOP ( 'NONE', ( #11 ) ) ;
#40 = CARTESIAN_POINT ( 'NONE',  ( 6.899144154287763252E-14, -1.827788575476415116E-15, 19.75993420767851916 ) ) ;
#41 = DIRECTION ( 'NONE',  ( 0.0000000000000000000, 1.000000000000000000, 0.0000000000000000000 ) ) ;
#42 = CC_DESIGN_DATE_AND_TIME_ASSIGNMENT ( #72, #22, ( #44 ) ) ;
#43 = EDGE_LOOP ( 'NONE', ( #57 ) ) ;
#44 = SECURITY_CLASSIFICATION ( '', '', #228 ) ;
#45 = ORIENTED_EDGE ( 'NONE', *, *, #15, .F. ) ;
#46 = FACE_OUTER_BOUND ( 'NONE', #99, .T. ) ;
#47 = FACE_OUTER_BOUND ( 'NONE', #152, .T. ) ;
#48 = AXIS2_PLACEMENT_3D ( 'NONE', #79, #217, #151 ) ;
#49 = VERTEX_POINT ( 'NONE', #184 ) ;
#50 = CARTESIAN_POINT ( 'NONE',  ( 2.775727664380291081E-13, 2.999999999999992006, 79.50000000000000000 ) ) ;
#51 = PERSON_AND_ORGANIZATION ( #218, #64 ) ;
#52 = PERSON_AND_ORGANIZATION ( #218, #64 ) ;
#53 = ADVANCED_FACE ( 'NONE', ( #117, #119 ), #60, .T. ) ;
#54 = DIRECTION ( 'NONE',  ( 0.0000000000000000000, 0.0000000000000000000, 1.000000000000000000 ) ) ;
#55 = CC_DESIGN_APPROVAL ( #112, ( #78 ) ) ;
#56 = SHAPE_DEFINITION_REPRESENTATION ( #109, #162 ) ;
#57 = ORIENTED_EDGE ( 'NONE', *, *, #181, .T. ) ;
#58 = ORIENTED_EDGE ( 'NONE', *, *, #68, .T. ) ;
#59 = CIRCLE ( 'NONE', #26, 2.999999999999985345 ) ;
#60 = CYLINDRICAL_SURFACE ( 'NONE', #195, 2.999999999999994227 ) ;
#61 = CC_DESIGN_PERSON_AND_ORGANIZATION_ASSIGNMENT ( #243, #210, ( #78 ) ) ;
#62 = DIRECTION ( 'NONE',  ( 0.0000000000000000000, -1.000000000000000000, 0.0000000000000000000 ) ) ;
#63 = CARTESIAN_POINT ( 'NONE',  ( 3.142333204958820020E-14, 2.249639673992774917E-32, 9.000000000000000000 ) ) ;
#64 = ORGANIZATION ( 'UNSPECIFIED', 'UNSPECIFIED', '' ) ;
#65 = CARTESIAN_POINT ( 'NONE',  ( 1.047444401652934958E-14, -4.336808689942017736E-16, 2.999999999999985789 ) ) ;
#66 = DIRECTION ( 'NONE',  ( 5.135813185032653172E-31, 1.000000000000000000, 1.445602896647346066E-16 ) ) ;
#67 = VERTEX_POINT ( 'NONE', #129 ) ;
#68 = EDGE_CURVE ( 'NONE', #88, #88, #227, .T. ) ;
#69 = DIRECTION ( 'NONE',  ( 3.491481338843133355E-15, -1.224646799147352961E-16, 1.000000000000000000 ) ) ;
#70 = EDGE_CURVE ( 'NONE', #142, #142, #6, .T. ) ;
#71 = PERSON_AND_ORGANIZATION ( #218, #64 ) ;
#72 = DATE_AND_TIME ( #187, #199 ) ;
#73 = DESIGN_CONTEXT ( 'detailed design', #171, 'design' ) ;
#74 = APPROVAL_DATE_TIME ( #165, #167 ) ;
#75 = CARTESIAN_POINT ( 'NONE',  ( 0.0000000000000000000, 0.0000000000000000000, 0.0000000000000000000 ) ) ;
#76 = LOCAL_TIME ( 8, 49, 29.00000000000000000, #169 ) ;
#77 = ORIENTED_EDGE ( 'NONE', *, *, #31, .T. ) ;
#78 = PRODUCT_DEFINITION ( 'UNKNOWN', '', #97, #73 ) ;
#79 = CARTESIAN_POINT ( 'NONE',  ( 3.142333204958820020E-14, 2.249639673992774917E-32, 9.000000000000000000 ) ) ;
#80 = DIRECTION ( 'NONE',  ( 4.275831445896959482E-31, 1.000000000000000000, 1.224646799147353454E-16 ) ) ;
#81 = DIRECTION ( 'NONE',  ( 0.0000000000000000000, 1.000000000000000000, 0.0000000000000000000 ) ) ;
#82 = VERTEX_POINT ( 'NONE', #141 ) ;
#83 = CIRCLE ( 'NONE', #23, 2.999999999999987566 ) ;
#84 = DIRECTION ( 'NONE',  ( -3.491481338843133355E-15, 1.224646799147353207E-16, -1.000000000000000000 ) ) ;
#85 = FACE_OUTER_BOUND ( 'NONE', #235, .T. ) ;
#86 = CC_DESIGN_DATE_AND_TIME_ASSIGNMENT ( #194, #93, ( #78 ) ) ;
#87 = LOCAL_TIME ( 8, 49, 29.00000000000000000, #192 ) ;
#88 = VERTEX_POINT ( 'NONE', #13 ) ;
#89 = AXIS2_PLACEMENT_3D ( 'NONE', #150, #9, #225 ) ;
#90 = ADVANCED_FACE ( 'NONE', ( #236 ), #175, .F. ) ;
#91 = PERSON_AND_ORGANIZATION_ROLE ( 'design_owner' ) ;
#92 = ADVANCED_FACE ( 'NONE', ( #174 ), #7, .F. ) ;
#93 = DATE_TIME_ROLE ( 'creation_date' ) ;
#94 = CIRCLE ( 'NONE', #106, 2.500000000000002220 ) ;
#95 = PERSON_AND_ORGANIZATION_ROLE ( 'classification_officer' ) ;
#96 = APPROVAL_ROLE ( '' ) ;
#97 = PRODUCT_DEFINITION_FORMATION_WITH_SPECIFIED_SOURCE ( 'ANY', '', #14, .NOT_KNOWN. ) ;
#98 = EDGE_LOOP ( 'NONE', ( #136 ) ) ;
#99 = EDGE_LOOP ( 'NONE', ( #12 ) ) ;
#100 = ORIENTED_EDGE ( 'NONE', *, *, #214, .T. ) ;
#101 = AXIS2_PLACEMENT_3D ( 'NONE', #178, #24, #62 ) ;
#102 = ORIENTED_EDGE ( 'NONE', *, *, #70, .F. ) ;
#103 = DIRECTION ( 'NONE',  ( 3.491481338843133355E-15, -1.224646799147352961E-16, 1.000000000000000000 ) ) ;
#104 = DIRECTION ( 'NONE',  ( 4.275831445896958607E-31, 1.000000000000000000, 1.224646799147353207E-16 ) ) ;
#105 = MANIFOLD_SOLID_BREP ( 'Corps-Déplacer/Copier1[1]', #153 ) ;
#106 = AXIS2_PLACEMENT_3D ( 'NONE', #140, #84, #159 ) ;
#107 = FACE_BOUND ( 'NONE', #43, .T. ) ;
#108 = VERTEX_POINT ( 'NONE', #128 ) ;
#109 = PRODUCT_DEFINITION_SHAPE ( 'NONE', 'NONE',  #78 ) ;
#110 = CC_DESIGN_SECURITY_CLASSIFICATION ( #44, ( #97 ) ) ;
#111 = AXIS2_PLACEMENT_3D ( 'NONE', #40, #200, #41 ) ;
#112 = APPROVAL ( #189, 'UNSPECIFIED' ) ;
#113 = PERSON_AND_ORGANIZATION ( #218, #64 ) ;
#114 = CLOSED_SHELL ( 'NONE', ( #216, #8, #149 ) ) ;
#115 = APPROVAL ( #168, 'UNSPECIFIED' ) ;
#116 = COORDINATED_UNIVERSAL_TIME_OFFSET ( 1, 0, .AHEAD. ) ;
#117 = FACE_OUTER_BOUND ( 'NONE', #176, .T. ) ;
#118 = ORIENTED_EDGE ( 'NONE', *, *, #68, .F. ) ;
#119 = FACE_OUTER_BOUND ( 'NONE', #10, .T. ) ;
#120 = DIRECTION ( 'NONE',  ( -3.491481338843133355E-15, 1.224646799147353207E-16, -1.000000000000000000 ) ) ;
#121 = CC_DESIGN_APPROVAL ( #167, ( #97 ) ) ;
#122 = AXIS2_PLACEMENT_3D ( 'NONE', #183, #69, #16 ) ;
#123 = DIRECTION ( 'NONE',  ( -4.275831445896958607E-31, -1.000000000000000000, -1.224646799147353207E-16 ) ) ;
#124 = CARTESIAN_POINT ( 'NONE',  ( 1.047444401652936062E-14, -3.673940397442066771E-16, 2.999999999999988898 ) ) ;
#125 = DIRECTION ( 'NONE',  ( 0.0000000000000000000, 1.000000000000000000, 0.0000000000000000000 ) ) ;
#126 = AXIS2_PLACEMENT_3D ( 'NONE', #205, #32, #104 ) ;
#127 = CYLINDRICAL_SURFACE ( 'NONE', #126, 2.999999999999986233 ) ;
#128 = CARTESIAN_POINT ( 'NONE',  ( 6.899144154287763252E-14, 2.999999999999992895, 19.75993420767851916 ) ) ;
#129 = CARTESIAN_POINT ( 'NONE',  ( 2.793185071074506684E-13, 2.499999999999992450, 80.00000000000000000 ) ) ;
#130 = APPLICATION_PROTOCOL_DEFINITION ( 'international standard', 'config_control_design', 1994, #171 ) ;
#131 = CALENDAR_DATE ( 2021, 22, 11 ) ;
#132 = APPLICATION_PROTOCOL_DEFINITION ( 'international standard', 'config_control_design', 1994, #191 ) ;
#133 = CC_DESIGN_PERSON_AND_ORGANIZATION_ASSIGNMENT ( #51, #95, ( #44 ) ) ;
#134 = DATE_AND_TIME ( #131, #208 ) ;
#135 = EDGE_LOOP ( 'NONE', ( #215 ) ) ;
#136 = ORIENTED_EDGE ( 'NONE', *, *, #232, .F. ) ;
#137 = ORIENTED_EDGE ( 'NONE', *, *, #214, .F. ) ;
#138 = DIRECTION ( 'NONE',  ( 3.491481338843133355E-15, -1.224646799147353207E-16, 1.000000000000000000 ) ) ;
#139 = CARTESIAN_POINT ( 'NONE',  ( 2.793185071074506684E-13, -9.797174393178826052E-15, 80.00000000000000000 ) ) ;
#140 = CARTESIAN_POINT ( 'NONE',  ( 2.793185071074506684E-13, -9.797174393178826052E-15, 80.00000000000000000 ) ) ;
#141 = CARTESIAN_POINT ( 'NONE',  ( 1.047444401652935905E-14, -2.999999999999985789, 2.999999999999988454 ) ) ;
#142 = VERTEX_POINT ( 'NONE', #50 ) ;
#143 = FACE_OUTER_BOUND ( 'NONE', #220, .T. ) ;
#144 = PERSON_AND_ORGANIZATION ( #218, #64 ) ;
#145 = AXIS2_PLACEMENT_3D ( 'NONE', #237, #103, #180 ) ;
#146 = PERSON_AND_ORGANIZATION ( #218, #64 ) ;
#147 = APPROVAL_PERSON_ORGANIZATION ( #52, #112, #163 ) ;
#148 = APPROVAL_DATE_TIME ( #134, #112 ) ;
#149 = ADVANCED_FACE ( 'NONE', ( #239 ), #156, .T. ) ;
#150 = CARTESIAN_POINT ( 'NONE',  ( 2.793185071074506684E-13, 1.874699728327308599E-32, 80.00000000000000000 ) ) ;
#151 = DIRECTION ( 'NONE',  ( -4.275831445896958607E-31, -1.000000000000000000, -1.224646799147353207E-16 ) ) ;
#152 = EDGE_LOOP ( 'NONE', ( #58 ) ) ;
#153 = CLOSED_SHELL ( 'NONE', ( #53, #170, #92, #203, #164, #90 ) ) ;
#154 = ORIENTED_EDGE ( 'NONE', *, *, #232, .T. ) ;
#155 = EDGE_LOOP ( 'NONE', ( #45 ) ) ;
#156 = SPHERICAL_SURFACE ( 'NONE', #5, 2.999999999999985789 ) ;
#157 = CIRCLE ( 'NONE', #111, 2.999999999999994227 ) ;
#158 = VERTEX_POINT ( 'NONE', #240 ) ;
#159 = DIRECTION ( 'NONE',  ( 0.0000000000000000000, 1.000000000000000000, 0.0000000000000000000 ) ) ;
#160 = AXIS2_PLACEMENT_3D ( 'NONE', #17, #182, #221 ) ;
#161 =( NAMED_UNIT ( * ) SI_UNIT ( $, .STERADIAN. ) SOLID_ANGLE_UNIT ( ) );
#162 = ADVANCED_BREP_SHAPE_REPRESENTATION ( '61361', ( #105, #188, #18 ), #35 ) ;
#163 = APPROVAL_ROLE ( '' ) ;
#164 = ADVANCED_FACE ( 'NONE', ( #85, #204 ), #34, .T. ) ;
#165 = DATE_AND_TIME ( #19, #87 ) ;
#166 = AXIS2_PLACEMENT_3D ( 'NONE', #179, #213, #81 ) ;
#167 = APPROVAL ( #4, 'UNSPECIFIED' ) ;
#168 = APPROVAL_STATUS ( 'not_yet_approved' ) ;
#169 = COORDINATED_UNIVERSAL_TIME_OFFSET ( 1, 0, .AHEAD. ) ;
#170 = ADVANCED_FACE ( 'NONE', ( #143, #107 ), #33, .T. ) ;
#171 = APPLICATION_CONTEXT ( 'configuration controlled 3d designs of mechanical parts and assemblies' ) ;
#172 = CALENDAR_DATE ( 2021, 22, 11 ) ;
#173 = AXIS2_PLACEMENT_3D ( 'NONE', #63, #138, #123 ) ;
#174 = FACE_OUTER_BOUND ( 'NONE', #135, .T. ) ;
#175 = PLANE ( 'NONE',  #173 ) ;
#176 = EDGE_LOOP ( 'NONE', ( #77 ) ) ;
#177 = CC_DESIGN_PERSON_AND_ORGANIZATION_ASSIGNMENT ( #146, #226, ( #97 ) ) ;
#178 = CARTESIAN_POINT ( 'NONE',  ( 6.633814543801950851E-14, -2.326828918379972154E-15, 18.99999999999999645 ) ) ;
#179 = CARTESIAN_POINT ( 'NONE',  ( 2.775727664380291081E-13, -9.735942053221458478E-15, 79.50000000000000000 ) ) ;
#180 = DIRECTION ( 'NONE',  ( 0.0000000000000000000, -1.000000000000000000, 0.0000000000000000000 ) ) ;
#181 = EDGE_CURVE ( 'NONE', #67, #67, #94, .T. ) ;
#182 = DIRECTION ( 'NONE',  ( 3.491481338843133355E-15, -1.224646799147352961E-16, 1.000000000000000000 ) ) ;
#183 = CARTESIAN_POINT ( 'NONE',  ( 3.142333204958818126E-14, -1.102182119232618503E-15, 8.999999999999994671 ) ) ;
#184 = CARTESIAN_POINT ( 'NONE',  ( 3.142333204958818126E-14, -2.850000000000001421, 8.999999999999994671 ) ) ;
#185 = DIRECTION ( 'NONE',  ( -3.491481338843133355E-15, 1.224646799147353207E-16, -1.000000000000000000 ) ) ;
#186 = APPROVAL_PERSON_ORGANIZATION ( #144, #167, #20 ) ;
#187 = CALENDAR_DATE ( 2021, 22, 11 ) ;
#188 = MANIFOLD_SOLID_BREP ( 'Corps-Déplacer/Copier1[2]', #114 ) ;
#189 = APPROVAL_STATUS ( 'not_yet_approved' ) ;
#190 = CC_DESIGN_PERSON_AND_ORGANIZATION_ASSIGNMENT ( #36, #91, ( #14 ) ) ;
#191 = APPLICATION_CONTEXT ( 'configuration controlled 3d designs of mechanical parts and assemblies' ) ;
#192 = COORDINATED_UNIVERSAL_TIME_OFFSET ( 1, 0, .AHEAD. ) ;
#193 = UNCERTAINTY_MEASURE_WITH_UNIT (LENGTH_MEASURE( 1.000000000000000082E-05 ), #241, 'distance_accuracy_value', 'NONE');
#194 = DATE_AND_TIME ( #38, #238 ) ;
#195 = AXIS2_PLACEMENT_3D ( 'NONE', #196, #198, #80 ) ;
#196 = CARTESIAN_POINT ( 'NONE',  ( 0.0000000000000000000, 0.0000000000000000000, 0.0000000000000000000 ) ) ;
#197 = EDGE_LOOP ( 'NONE', ( #100 ) ) ;
#198 = DIRECTION ( 'NONE',  ( -3.491481338843133355E-15, 1.224646799147353207E-16, -1.000000000000000000 ) ) ;
#199 = LOCAL_TIME ( 8, 49, 29.00000000000000000, #211 ) ;
#200 = DIRECTION ( 'NONE',  ( 3.491481338843133355E-15, -1.224646799147352961E-16, 1.000000000000000000 ) ) ;
#201 = CIRCLE ( 'NONE', #122, 2.850000000000000089 ) ;
#202 = EDGE_LOOP ( 'NONE', ( #137 ) ) ;
#203 = ADVANCED_FACE ( 'NONE', ( #47, #46 ), #1, .F. ) ;
#204 = FACE_OUTER_BOUND ( 'NONE', #212, .T. ) ;
#205 = CARTESIAN_POINT ( 'NONE',  ( 0.0000000000000000000, 0.0000000000000000000, 0.0000000000000000000 ) ) ;
#206 =( NAMED_UNIT ( * ) PLANE_ANGLE_UNIT ( ) SI_UNIT ( $, .RADIAN. ) );
#207 = DIRECTION ( 'NONE',  ( -1.000000000000000000, 8.851764801086616365E-33, 3.491481338843132961E-15 ) ) ;
#208 = LOCAL_TIME ( 8, 49, 29.00000000000000000, #3 ) ;
#209 = DIRECTION ( 'NONE',  ( 1.000000000000000000, 0.0000000000000000000, 0.0000000000000000000 ) ) ;
#210 = PERSON_AND_ORGANIZATION_ROLE ( 'creator' ) ;
#211 = COORDINATED_UNIVERSAL_TIME_OFFSET ( 1, 0, .AHEAD. ) ;
#212 = EDGE_LOOP ( 'NONE', ( #154 ) ) ;
#213 = DIRECTION ( 'NONE',  ( -3.491481338843133355E-15, 1.224646799147353207E-16, -1.000000000000000000 ) ) ;
#214 = EDGE_CURVE ( 'NONE', #82, #82, #59, .T. ) ;
#215 = ORIENTED_EDGE ( 'NONE', *, *, #181, .F. ) ;
#216 = ADVANCED_FACE ( 'NONE', ( #242, #223 ), #127, .T. ) ;
#217 = DIRECTION ( 'NONE',  ( 3.491481338843133355E-15, -1.224646799147353207E-16, 1.000000000000000000 ) ) ;
#218 = PERSON ( 'UNSPECIFIED', 'UNSPECIFIED', 'UNSPECIFIED', ('UNSPECIFIED'), ('UNSPECIFIED'), ('UNSPECIFIED') ) ;
#219 = CC_DESIGN_APPROVAL ( #115, ( #44 ) ) ;
#220 = EDGE_LOOP ( 'NONE', ( #102 ) ) ;
#221 = DIRECTION ( 'NONE',  ( -4.275831445896957731E-31, -1.000000000000000000, -1.224646799147352961E-16 ) ) ;
#222 = DIRECTION ( 'NONE',  ( -5.135813185032654048E-31, -1.000000000000000000, -1.445602896647346312E-16 ) ) ;
#223 = FACE_OUTER_BOUND ( 'NONE', #197, .T. ) ;
#224 = CC_DESIGN_PERSON_AND_ORGANIZATION_ASSIGNMENT ( #71, #21, ( #97 ) ) ;
#225 = DIRECTION ( 'NONE',  ( 4.275831445896958607E-31, 1.000000000000000000, 1.224646799147353207E-16 ) ) ;
#226 = PERSON_AND_ORGANIZATION_ROLE ( 'design_supplier' ) ;
#227 = CIRCLE ( 'NONE', #101, 2.850000000000000089 ) ;
#228 = SECURITY_CLASSIFICATION_LEVEL ( 'unclassified' ) ;
#229 = APPROVAL_PERSON_ORGANIZATION ( #113, #115, #96 ) ;
#230 = AXIS2_PLACEMENT_3D ( 'NONE', #139, #185, #125 ) ;
#231 = APPROVAL_DATE_TIME ( #2, #115 ) ;
#232 = EDGE_CURVE ( 'NONE', #49, #49, #201, .T. ) ;
#233 = CARTESIAN_POINT ( 'NONE',  ( 3.142333204958820020E-14, -1.102182119232617714E-15, 9.000000000000000000 ) ) ;
#234 = DIRECTION ( 'NONE',  ( 0.0000000000000000000, 1.000000000000000000, 0.0000000000000000000 ) ) ;
#235 = EDGE_LOOP ( 'NONE', ( #118 ) ) ;
#236 = FACE_OUTER_BOUND ( 'NONE', #98, .T. ) ;
#237 = CARTESIAN_POINT ( 'NONE',  ( 2.775727664380291081E-13, -9.735942053221458478E-15, 79.50000000000000000 ) ) ;
#238 = LOCAL_TIME ( 8, 49, 29.00000000000000000, #116 ) ;
#239 = FACE_OUTER_BOUND ( 'NONE', #202, .T. ) ;
#240 = CARTESIAN_POINT ( 'NONE',  ( 3.142333204958820020E-14, 2.999999999999986233, 9.000000000000000000 ) ) ;
#241 =( LENGTH_UNIT ( ) NAMED_UNIT ( * ) SI_UNIT ( .MILLI., .METRE. ) );
#242 = FACE_OUTER_BOUND ( 'NONE', #39, .T. ) ;
#243 = PERSON_AND_ORGANIZATION ( #218, #64 ) ;
ENDSEC;
END-ISO-10303-21;
