ISO-10303-21;
HEADER;
FILE_DESCRIPTION (( 'STEP AP203' ),
    '1' );
FILE_NAME ('61360.step',
    '2021-11-22T07:49:28',
    ( '' ),
    ( '' ),
    'SwSTEP 2.0',
    'SolidWorks 2019',
    '' );
FILE_SCHEMA (( 'CONFIG_CONTROL_DESIGN' ));
ENDSEC;

DATA;
#1 = CALENDAR_DATE ( 2021, 22, 11 ) ;
#2 = CIRCLE ( 'NONE', #42, 2.499999999999999556 ) ;
#3 = DATE_AND_TIME ( #243, #192 ) ;
#4 = DIRECTION ( 'NONE',  ( 0.0000000000000000000, 0.0000000000000000000, 1.000000000000000000 ) ) ;
#5 = ADVANCED_FACE ( 'NONE', ( #157, #68 ), #12, .T. ) ;
#6 = COORDINATED_UNIVERSAL_TIME_OFFSET ( 1, 0, .AHEAD. ) ;
#7 = CIRCLE ( 'NONE', #189, 2.349999999999996980 ) ;
#8 = AXIS2_PLACEMENT_3D ( 'NONE', #19, #239, #56 ) ;
#9 = ORIENTED_EDGE ( 'NONE', *, *, #77, .T. ) ;
#10 = CYLINDRICAL_SURFACE ( 'NONE', #151, 2.999999999999993783 ) ;
#11 = ADVANCED_FACE ( 'NONE', ( #66 ), #184, .F. ) ;
#12 = CYLINDRICAL_SURFACE ( 'NONE', #237, 2.349999999999997868 ) ;
#13 = PRODUCT_DEFINITION_SHAPE ( 'NONE', 'NONE',  #115 ) ;
#14 = AXIS2_PLACEMENT_3D ( 'NONE', #215, #220, #202 ) ;
#15 = ORIENTED_EDGE ( 'NONE', *, *, #77, .F. ) ;
#16 = DIRECTION ( 'NONE',  ( 3.491481338843133355E-15, 6.327045624920145811E-17, 1.000000000000000000 ) ) ;
#17 = DIRECTION ( 'NONE',  ( -4.275831445896958607E-31, -1.000000000000000000, -1.224646799147353207E-16 ) ) ;
#18 = APPLICATION_CONTEXT ( 'configuration controlled 3d designs of mechanical parts and assemblies' ) ;
#19 = CARTESIAN_POINT ( 'NONE',  ( 0.0000000000000000000, 0.0000000000000000000, 0.0000000000000000000 ) ) ;
#20 = LOCAL_TIME ( 8, 49, 28.00000000000000000, #194 ) ;
#21 = DIRECTION ( 'NONE',  ( 3.491481338843133355E-15, 6.327045624920145811E-17, 1.000000000000000000 ) ) ;
#22 = CIRCLE ( 'NONE', #227, 2.500000000000002220 ) ;
#23 = DATE_AND_TIME ( #61, #119 ) ;
#24 = APPROVAL ( #117, 'UNSPECIFIED' ) ;
#25 = COORDINATED_UNIVERSAL_TIME_OFFSET ( 1, 0, .AHEAD. ) ;
#26 = SECURITY_CLASSIFICATION ( '', '', #93 ) ;
#27 = DATE_AND_TIME ( #1, #178 ) ;
#28 = EDGE_LOOP ( 'NONE', ( #47 ) ) ;
#29 = COORDINATED_UNIVERSAL_TIME_OFFSET ( 1, 0, .AHEAD. ) ;
#30 = CARTESIAN_POINT ( 'NONE',  ( 2.793185071074506684E-13, -9.797174393178826052E-15, 80.00000000000000000 ) ) ;
#31 = ADVANCED_FACE ( 'NONE', ( #158, #232 ), #80, .F. ) ;
#32 = EDGE_LOOP ( 'NONE', ( #176 ) ) ;
#33 = EDGE_LOOP ( 'NONE', ( #15 ) ) ;
#34 = EDGE_LOOP ( 'NONE', ( #233 ) ) ;
#35 = DIRECTION ( 'NONE',  ( -4.275831445896958607E-31, -1.000000000000000000, -1.224646799147353207E-16 ) ) ;
#36 = CARTESIAN_POINT ( 'NONE',  ( 5.411796075206856701E-14, -2.349999999999996092, 15.50000000000000000 ) ) ;
#37 = PRODUCT_DEFINITION_FORMATION_WITH_SPECIFIED_SOURCE ( 'ANY', '', #164, .NOT_KNOWN. ) ;
#38 = CC_DESIGN_PERSON_AND_ORGANIZATION_ASSIGNMENT ( #228, #134, ( #115 ) ) ;
#39 = CARTESIAN_POINT ( 'NONE',  ( 6.514656603339310550E-14, 2.999999999999995559, 18.65871809441741291 ) ) ;
#40 = VERTEX_POINT ( 'NONE', #39 ) ;
#41 = PERSON_AND_ORGANIZATION_ROLE ( 'design_owner' ) ;
#42 = AXIS2_PLACEMENT_3D ( 'NONE', #225, #104, #146 ) ;
#43 = EDGE_CURVE ( 'NONE', #188, #188, #7, .T. ) ;
#44 = APPROVAL_ROLE ( '' ) ;
#45 = AXIS2_PLACEMENT_3D ( 'NONE', #103, #16, #86 ) ;
#46 = APPLICATION_PROTOCOL_DEFINITION ( 'international standard', 'config_control_design', 1994, #196 ) ;
#47 = ORIENTED_EDGE ( 'NONE', *, *, #193, .F. ) ;
#48 = EDGE_LOOP ( 'NONE', ( #234 ) ) ;
#49 = DIRECTION ( 'NONE',  ( 4.275831445896958607E-31, 1.000000000000000000, 1.224646799147353207E-16 ) ) ;
#50 = EDGE_LOOP ( 'NONE', ( #123 ) ) ;
#51 = EDGE_LOOP ( 'NONE', ( #201 ) ) ;
#52 = DIRECTION ( 'NONE',  ( -3.491481338843133355E-15, -6.327045624920145811E-17, -1.000000000000000000 ) ) ;
#53 = DIRECTION ( 'NONE',  ( 3.491481338843133355E-15, -1.224646799147353207E-16, 1.000000000000000000 ) ) ;
#54 = EDGE_CURVE ( 'NONE', #207, #207, #22, .T. ) ;
#55 = APPROVAL_PERSON_ORGANIZATION ( #171, #166, #44 ) ;
#56 = DIRECTION ( 'NONE',  ( 2.209076172941777805E-31, -1.000000000000000000, 6.327045624920145811E-17 ) ) ;
#57 = PRODUCT_RELATED_PRODUCT_CATEGORY ( 'detail', '', ( #164 ) ) ;
#58 = CALENDAR_DATE ( 2021, 22, 11 ) ;
#59 = CIRCLE ( 'NONE', #205, 2.999999999999993783 ) ;
#60 = PERSON_AND_ORGANIZATION ( #122, #112 ) ;
#61 = CALENDAR_DATE ( 2021, 22, 11 ) ;
#62 = MECHANICAL_CONTEXT ( 'NONE', #18, 'mechanical' ) ;
#63 = CC_DESIGN_SECURITY_CLASSIFICATION ( #26, ( #37 ) ) ;
#64 = PERSON_AND_ORGANIZATION_ROLE ( 'design_supplier' ) ;
#65 = APPROVAL ( #231, 'UNSPECIFIED' ) ;
#66 = FACE_OUTER_BOUND ( 'NONE', #51, .T. ) ;
#67 = SPHERICAL_SURFACE ( 'NONE', #14, 2.500000000000000000 ) ;
#68 = FACE_OUTER_BOUND ( 'NONE', #48, .T. ) ;
#69 = DIRECTION ( 'NONE',  ( 3.491481338843133355E-15, 6.327045624920145811E-17, 1.000000000000000000 ) ) ;
#70 = DIRECTION ( 'NONE',  ( 0.0000000000000000000, -1.000000000000000000, 0.0000000000000000000 ) ) ;
#71 = DIRECTION ( 'NONE',  ( -3.491481338843133355E-15, 1.224646799147353207E-16, -1.000000000000000000 ) ) ;
#72 = CARTESIAN_POINT ( 'NONE',  ( 2.444036937190193033E-14, 2.249639673992774917E-32, 6.999999999999999112 ) ) ;
#73 = CC_DESIGN_PERSON_AND_ORGANIZATION_ASSIGNMENT ( #211, #113, ( #37 ) ) ;
#74 = VERTEX_POINT ( 'NONE', #147 ) ;
#75 = DIRECTION ( 'NONE',  ( 0.0000000000000000000, 1.000000000000000000, 0.0000000000000000000 ) ) ;
#76 = AXIS2_PLACEMENT_3D ( 'NONE', #137, #4, #153 ) ;
#77 = EDGE_CURVE ( 'NONE', #108, #108, #132, .T. ) ;
#78 = FACE_OUTER_BOUND ( 'NONE', #180, .T. ) ;
#79 = PERSON_AND_ORGANIZATION_ROLE ( 'classification_officer' ) ;
#80 = TOROIDAL_SURFACE ( 'NONE', #45, 10.34999999999999609, 8.000000000000000000 ) ;
#81 = UNCERTAINTY_MEASURE_WITH_UNIT (LENGTH_MEASURE( 1.000000000000000082E-05 ), #92, 'distance_accuracy_value', 'NONE');
#82 = DATE_AND_TIME ( #177, #20 ) ;
#83 = EDGE_LOOP ( 'NONE', ( #100 ) ) ;
#84 = CARTESIAN_POINT ( 'NONE',  ( 5.411796075206856701E-14, 9.806920718626226623E-16, 15.50000000000000000 ) ) ;
#85 = DIRECTION ( 'NONE',  ( -3.491481338843133355E-15, 1.224646799147353207E-16, -1.000000000000000000 ) ) ;
#86 = DIRECTION ( 'NONE',  ( 2.266962373275858668E-31, -1.000000000000000000, 6.327045624920145811E-17 ) ) ;
#87 = AXIS2_PLACEMENT_3D ( 'NONE', #181, #85, #49 ) ;
#88 = FACE_OUTER_BOUND ( 'NONE', #34, .T. ) ;
#89 = DIRECTION ( 'NONE',  ( -3.491481338843133355E-15, 1.224646799147353207E-16, -1.000000000000000000 ) ) ;
#90 = PLANE ( 'NONE',  #97 ) ;
#91 = CC_DESIGN_DATE_AND_TIME_ASSIGNMENT ( #23, #155, ( #115 ) ) ;
#92 =( LENGTH_UNIT ( ) NAMED_UNIT ( * ) SI_UNIT ( .MILLI., .METRE. ) );
#93 = SECURITY_CLASSIFICATION_LEVEL ( 'unclassified' ) ;
#94 = PERSON_AND_ORGANIZATION ( #122, #112 ) ;
#95 = ADVANCED_FACE ( 'NONE', ( #138 ), #67, .T. ) ;
#96 = APPROVAL_DATE_TIME ( #82, #65 ) ;
#97 = AXIS2_PLACEMENT_3D ( 'NONE', #72, #206, #35 ) ;
#98 = APPLICATION_PROTOCOL_DEFINITION ( 'international standard', 'config_control_design', 1994, #18 ) ;
#99 = ORIENTED_EDGE ( 'NONE', *, *, #142, .T. ) ;
#100 = ORIENTED_EDGE ( 'NONE', *, *, #135, .T. ) ;
#101 = CARTESIAN_POINT ( 'NONE',  ( 0.0000000000000000000, 0.0000000000000000000, 0.0000000000000000000 ) ) ;
#102 = DIRECTION ( 'NONE',  ( 0.0000000000000000000, -1.000000000000000000, 0.0000000000000000000 ) ) ;
#103 = CARTESIAN_POINT ( 'NONE',  ( 5.411796075206857332E-14, 1.734723475976807094E-15, 15.50000000000000178 ) ) ;
#104 = DIRECTION ( 'NONE',  ( 3.491481338843133355E-15, 6.327045624920145811E-17, 1.000000000000000000 ) ) ;
#105 = ADVANCED_FACE ( 'NONE', ( #143, #198 ), #10, .T. ) ;
#106 = FACE_OUTER_BOUND ( 'NONE', #161, .T. ) ;
#107 = CONICAL_SURFACE ( 'NONE', #124, 2.500000000000002220, 0.7853981633974471688 ) ;
#108 = VERTEX_POINT ( 'NONE', #242 ) ;
#109 = CARTESIAN_POINT ( 'NONE',  ( 8.728703347107834966E-15, -2.499999999999999556, 2.500000000000000444 ) ) ;
#110 = CARTESIAN_POINT ( 'NONE',  ( 2.775727664380291081E-13, 2.999999999999992006, 79.50000000000000000 ) ) ;
#111 = ADVANCED_BREP_SHAPE_REPRESENTATION ( '61360', ( #212, #208, #76 ), #183 ) ;
#112 = ORGANIZATION ( 'UNSPECIFIED', 'UNSPECIFIED', '' ) ;
#113 = PERSON_AND_ORGANIZATION_ROLE ( 'creator' ) ;
#114 = AXIS2_PLACEMENT_3D ( 'NONE', #145, #21, #149 ) ;
#115 = PRODUCT_DEFINITION ( 'UNKNOWN', '', #37, #229 ) ;
#116 = CLOSED_SHELL ( 'NONE', ( #174, #95, #218 ) ) ;
#117 = APPROVAL_STATUS ( 'not_yet_approved' ) ;
#118 = DIRECTION ( 'NONE',  ( 3.491481338843133355E-15, 6.327045624920145811E-17, 1.000000000000000000 ) ) ;
#119 = LOCAL_TIME ( 8, 49, 28.00000000000000000, #6 ) ;
#120 = ORIENTED_EDGE ( 'NONE', *, *, #128, .T. ) ;
#121 = CC_DESIGN_PERSON_AND_ORGANIZATION_ASSIGNMENT ( #150, #41, ( #164 ) ) ;
#122 = PERSON ( 'UNSPECIFIED', 'UNSPECIFIED', 'UNSPECIFIED', ('UNSPECIFIED'), ('UNSPECIFIED'), ('UNSPECIFIED') ) ;
#123 = ORIENTED_EDGE ( 'NONE', *, *, #142, .F. ) ;
#124 = AXIS2_PLACEMENT_3D ( 'NONE', #130, #89, #223 ) ;
#125 = EDGE_LOOP ( 'NONE', ( #179 ) ) ;
#126 = PLANE ( 'NONE',  #144 ) ;
#127 = CARTESIAN_POINT ( 'NONE',  ( 2.775727664380291081E-13, -9.735942053221458478E-15, 79.50000000000000000 ) ) ;
#128 = EDGE_CURVE ( 'NONE', #74, #74, #156, .T. ) ;
#129 = FACE_OUTER_BOUND ( 'NONE', #33, .T. ) ;
#130 = CARTESIAN_POINT ( 'NONE',  ( 2.793185071074506684E-13, -9.797174393178826052E-15, 80.00000000000000000 ) ) ;
#131 =( NAMED_UNIT ( * ) SI_UNIT ( $, .STERADIAN. ) SOLID_ANGLE_UNIT ( ) );
#132 = CIRCLE ( 'NONE', #216, 2.499999999999998224 ) ;
#133 = PERSON_AND_ORGANIZATION ( #122, #112 ) ;
#134 = PERSON_AND_ORGANIZATION_ROLE ( 'creator' ) ;
#135 = EDGE_CURVE ( 'NONE', #224, #224, #172, .T. ) ;
#136 = APPROVAL_PERSON_ORGANIZATION ( #60, #65, #214 ) ;
#137 = CARTESIAN_POINT ( 'NONE',  ( 0.0000000000000000000, 0.0000000000000000000, 0.0000000000000000000 ) ) ;
#138 = FACE_OUTER_BOUND ( 'NONE', #28, .T. ) ;
#139 = EDGE_LOOP ( 'NONE', ( #217 ) ) ;
#140 = APPROVAL_PERSON_ORGANIZATION ( #175, #24, #195 ) ;
#141 = DIRECTION ( 'NONE',  ( 2.209076172941777805E-31, -1.000000000000000000, 6.327045624920145811E-17 ) ) ;
#142 = EDGE_CURVE ( 'NONE', #40, #40, #59, .T. ) ;
#143 = FACE_OUTER_BOUND ( 'NONE', #83, .T. ) ;
#144 = AXIS2_PLACEMENT_3D ( 'NONE', #165, #53, #17 ) ;
#145 = CARTESIAN_POINT ( 'NONE',  ( 2.444036937190193033E-14, 4.428931937444101328E-16, 6.999999999999999112 ) ) ;
#146 = DIRECTION ( 'NONE',  ( 0.0000000000000000000, -1.000000000000000000, 0.0000000000000000000 ) ) ;
#147 = CARTESIAN_POINT ( 'NONE',  ( 2.444036937190193033E-14, -2.349999999999998312, 6.999999999999999112 ) ) ;
#148 = ADVANCED_FACE ( 'NONE', ( #186 ), #126, .F. ) ;
#149 = DIRECTION ( 'NONE',  ( 0.0000000000000000000, -1.000000000000000000, 0.0000000000000000000 ) ) ;
#150 = PERSON_AND_ORGANIZATION ( #122, #112 ) ;
#151 = AXIS2_PLACEMENT_3D ( 'NONE', #240, #71, #238 ) ;
#152 = DATE_AND_TIME ( #58, #168 ) ;
#153 = DIRECTION ( 'NONE',  ( 1.000000000000000000, 0.0000000000000000000, 0.0000000000000000000 ) ) ;
#154 = COORDINATED_UNIVERSAL_TIME_OFFSET ( 1, 0, .AHEAD. ) ;
#155 = DATE_TIME_ROLE ( 'creation_date' ) ;
#156 = CIRCLE ( 'NONE', #114, 2.349999999999998757 ) ;
#157 = FACE_OUTER_BOUND ( 'NONE', #219, .T. ) ;
#158 = FACE_OUTER_BOUND ( 'NONE', #125, .T. ) ;
#159 = EDGE_LOOP ( 'NONE', ( #99 ) ) ;
#160 = CC_DESIGN_APPROVAL ( #65, ( #37 ) ) ;
#161 = EDGE_LOOP ( 'NONE', ( #199 ) ) ;
#162 = DIRECTION ( 'NONE',  ( 0.0000000000000000000, 1.000000000000000000, 0.0000000000000000000 ) ) ;
#163 = AXIS2_PLACEMENT_3D ( 'NONE', #127, #221, #75 ) ;
#164 = PRODUCT ( '61360', '61360', '', ( #62 ) ) ;
#165 = CARTESIAN_POINT ( 'NONE',  ( 2.444036937190193033E-14, 2.249639673992774917E-32, 6.999999999999999112 ) ) ;
#166 = APPROVAL ( #173, 'UNSPECIFIED' ) ;
#167 = CARTESIAN_POINT ( 'NONE',  ( 2.793185071074506684E-13, 2.499999999999992450, 80.00000000000000000 ) ) ;
#168 = LOCAL_TIME ( 8, 49, 28.00000000000000000, #29 ) ;
#169 = CYLINDRICAL_SURFACE ( 'NONE', #8, 2.499999999999998668 ) ;
#170 = CC_DESIGN_PERSON_AND_ORGANIZATION_ASSIGNMENT ( #94, #64, ( #37 ) ) ;
#171 = PERSON_AND_ORGANIZATION ( #122, #112 ) ;
#172 = CIRCLE ( 'NONE', #163, 3.000000000000001332 ) ;
#173 = APPROVAL_STATUS ( 'not_yet_approved' ) ;
#174 = ADVANCED_FACE ( 'NONE', ( #78 ), #90, .T. ) ;
#175 = PERSON_AND_ORGANIZATION ( #122, #112 ) ;
#176 = ORIENTED_EDGE ( 'NONE', *, *, #54, .T. ) ;
#177 = CALENDAR_DATE ( 2021, 22, 11 ) ;
#178 = LOCAL_TIME ( 8, 49, 28.00000000000000000, #25 ) ;
#179 = ORIENTED_EDGE ( 'NONE', *, *, #43, .T. ) ;
#180 = EDGE_LOOP ( 'NONE', ( #9 ) ) ;
#181 = CARTESIAN_POINT ( 'NONE',  ( 2.793185071074506684E-13, 1.874699728327308599E-32, 80.00000000000000000 ) ) ;
#182 = DIRECTION ( 'NONE',  ( -3.491481338843133355E-15, 1.224646799147353207E-16, -1.000000000000000000 ) ) ;
#183 =( GEOMETRIC_REPRESENTATION_CONTEXT ( 3 ) GLOBAL_UNCERTAINTY_ASSIGNED_CONTEXT ( ( #81 ) ) GLOBAL_UNIT_ASSIGNED_CONTEXT ( ( #92, #226, #131 ) ) REPRESENTATION_CONTEXT ( 'NONE', 'WORKASPACE' ) );
#184 = PLANE ( 'NONE',  #87 ) ;
#185 = VERTEX_POINT ( 'NONE', #109 ) ;
#186 = FACE_OUTER_BOUND ( 'NONE', #139, .T. ) ;
#187 = CLOSED_SHELL ( 'NONE', ( #105, #197, #11, #31, #5, #148 ) ) ;
#188 = VERTEX_POINT ( 'NONE', #36 ) ;
#189 = AXIS2_PLACEMENT_3D ( 'NONE', #84, #200, #102 ) ;
#190 = APPROVAL_DATE_TIME ( #27, #24 ) ;
#191 = APPROVAL_DATE_TIME ( #3, #166 ) ;
#192 = LOCAL_TIME ( 8, 49, 28.00000000000000000, #154 ) ;
#193 = EDGE_CURVE ( 'NONE', #185, #185, #2, .T. ) ;
#194 = COORDINATED_UNIVERSAL_TIME_OFFSET ( 1, 0, .AHEAD. ) ;
#195 = APPROVAL_ROLE ( '' ) ;
#196 = APPLICATION_CONTEXT ( 'configuration controlled 3d designs of mechanical parts and assemblies' ) ;
#197 = ADVANCED_FACE ( 'NONE', ( #106, #204 ), #107, .T. ) ;
#198 = FACE_OUTER_BOUND ( 'NONE', #50, .T. ) ;
#199 = ORIENTED_EDGE ( 'NONE', *, *, #135, .F. ) ;
#200 = DIRECTION ( 'NONE',  ( 3.491481338843133355E-15, 6.327045624920145811E-17, 1.000000000000000000 ) ) ;
#201 = ORIENTED_EDGE ( 'NONE', *, *, #54, .F. ) ;
#202 = DIRECTION ( 'NONE',  ( 0.0000000000000000000, 1.000000000000000000, 0.0000000000000000000 ) ) ;
#203 = CARTESIAN_POINT ( 'NONE',  ( 6.514656603339310550E-14, 1.934577010973204798E-15, 18.65871809441741291 ) ) ;
#204 = FACE_BOUND ( 'NONE', #32, .T. ) ;
#205 = AXIS2_PLACEMENT_3D ( 'NONE', #203, #52, #236 ) ;
#206 = DIRECTION ( 'NONE',  ( 3.491481338843133355E-15, -1.224646799147353207E-16, 1.000000000000000000 ) ) ;
#207 = VERTEX_POINT ( 'NONE', #167 ) ;
#208 = MANIFOLD_SOLID_BREP ( 'Corps-Déplacer/Copier1[2]', #116 ) ;
#209 = CC_DESIGN_APPROVAL ( #24, ( #115 ) ) ;
#210 = DATE_TIME_ROLE ( 'classification_date' ) ;
#211 = PERSON_AND_ORGANIZATION ( #122, #112 ) ;
#212 = MANIFOLD_SOLID_BREP ( 'Corps-Déplacer/Copier1[1]', #187 ) ;
#213 = CC_DESIGN_DATE_AND_TIME_ASSIGNMENT ( #152, #210, ( #26 ) ) ;
#214 = APPROVAL_ROLE ( '' ) ;
#215 = CARTESIAN_POINT ( 'NONE',  ( 8.728703347107833388E-15, -3.061616997868383141E-16, 2.500000000000000000 ) ) ;
#216 = AXIS2_PLACEMENT_3D ( 'NONE', #235, #69, #70 ) ;
#217 = ORIENTED_EDGE ( 'NONE', *, *, #128, .F. ) ;
#218 = ADVANCED_FACE ( 'NONE', ( #88, #129 ), #169, .T. ) ;
#219 = EDGE_LOOP ( 'NONE', ( #120 ) ) ;
#220 = DIRECTION ( 'NONE',  ( -1.000000000000000000, 0.0000000000000000000, 3.491481338843133355E-15 ) ) ;
#221 = DIRECTION ( 'NONE',  ( -3.491481338843133355E-15, 1.224646799147353207E-16, -1.000000000000000000 ) ) ;
#222 = CC_DESIGN_PERSON_AND_ORGANIZATION_ASSIGNMENT ( #133, #79, ( #26 ) ) ;
#223 = DIRECTION ( 'NONE',  ( 0.0000000000000000000, 1.000000000000000000, 0.0000000000000000000 ) ) ;
#224 = VERTEX_POINT ( 'NONE', #110 ) ;
#225 = CARTESIAN_POINT ( 'NONE',  ( 8.728703347107834966E-15, 1.581761406230036822E-16, 2.500000000000000444 ) ) ;
#226 =( NAMED_UNIT ( * ) PLANE_ANGLE_UNIT ( ) SI_UNIT ( $, .RADIAN. ) );
#227 = AXIS2_PLACEMENT_3D ( 'NONE', #30, #182, #162 ) ;
#228 = PERSON_AND_ORGANIZATION ( #122, #112 ) ;
#229 = DESIGN_CONTEXT ( 'detailed design', #196, 'design' ) ;
#230 = SHAPE_DEFINITION_REPRESENTATION ( #13, #111 ) ;
#231 = APPROVAL_STATUS ( 'not_yet_approved' ) ;
#232 = FACE_OUTER_BOUND ( 'NONE', #159, .T. ) ;
#233 = ORIENTED_EDGE ( 'NONE', *, *, #193, .T. ) ;
#234 = ORIENTED_EDGE ( 'NONE', *, *, #43, .F. ) ;
#235 = CARTESIAN_POINT ( 'NONE',  ( 2.444036937190193033E-14, 4.428931937444101328E-16, 6.999999999999999112 ) ) ;
#236 = DIRECTION ( 'NONE',  ( 0.0000000000000000000, 1.000000000000000000, 0.0000000000000000000 ) ) ;
#237 = AXIS2_PLACEMENT_3D ( 'NONE', #101, #118, #141 ) ;
#238 = DIRECTION ( 'NONE',  ( 4.275831445896958607E-31, 1.000000000000000000, 1.224646799147353454E-16 ) ) ;
#239 = DIRECTION ( 'NONE',  ( 3.491481338843133355E-15, 6.327045624920145811E-17, 1.000000000000000000 ) ) ;
#240 = CARTESIAN_POINT ( 'NONE',  ( 0.0000000000000000000, 0.0000000000000000000, 0.0000000000000000000 ) ) ;
#241 = CC_DESIGN_APPROVAL ( #166, ( #26 ) ) ;
#242 = CARTESIAN_POINT ( 'NONE',  ( 2.444036937190193033E-14, -2.499999999999997780, 6.999999999999999112 ) ) ;
#243 = CALENDAR_DATE ( 2021, 22, 11 ) ;
ENDSEC;
END-ISO-10303-21;
