ISO-10303-21;
HEADER;
FILE_DESCRIPTION (( 'STEP AP203' ),
    '1' );
FILE_NAME ('61359.step',
    '2021-11-22T07:49:28',
    ( '' ),
    ( '' ),
    'SwSTEP 2.0',
    'SolidWorks 2019',
    '' );
FILE_SCHEMA (( 'CONFIG_CONTROL_DESIGN' ));
ENDSEC;

DATA;
#1 = CALENDAR_DATE ( 2021, 22, 11 ) ;
#2 = AXIS2_PLACEMENT_3D ( 'NONE', #63, #137, #135 ) ;
#3 = APPROVAL_STATUS ( 'not_yet_approved' ) ;
#4 = UNCERTAINTY_MEASURE_WITH_UNIT (LENGTH_MEASURE( 1.000000000000000082E-05 ), #242, 'distance_accuracy_value', 'NONE');
#5 = DIRECTION ( 'NONE',  ( 1.000000000000000000, 0.0000000000000000000, 0.0000000000000000000 ) ) ;
#6 = CC_DESIGN_SECURITY_CLASSIFICATION ( #18, ( #93 ) ) ;
#7 = CARTESIAN_POINT ( 'NONE',  ( 0.0000000000000000000, 0.0000000000000000000, 0.0000000000000000000 ) ) ;
#8 = CC_DESIGN_PERSON_AND_ORGANIZATION_ASSIGNMENT ( #20, #230, ( #62 ) ) ;
#9 = DIRECTION ( 'NONE',  ( 3.491481338843133355E-15, 6.327045624920145811E-17, 1.000000000000000000 ) ) ;
#10 = DIRECTION ( 'NONE',  ( 3.491481338843133355E-15, -1.224646799147353207E-16, 1.000000000000000000 ) ) ;
#11 = EDGE_LOOP ( 'NONE', ( #60 ) ) ;
#12 = CARTESIAN_POINT ( 'NONE',  ( 2.793185071074506684E-13, 1.874699728327308599E-32, 80.00000000000000000 ) ) ;
#13 =( NAMED_UNIT ( * ) SI_UNIT ( $, .STERADIAN. ) SOLID_ANGLE_UNIT ( ) );
#14 = DIRECTION ( 'NONE',  ( -1.000000000000000000, 0.0000000000000000000, 3.491481338843133355E-15 ) ) ;
#15 = PRODUCT_DEFINITION ( 'UNKNOWN', '', #93, #190 ) ;
#16 = CARTESIAN_POINT ( 'NONE',  ( 2.094888803305880013E-14, -1.899999999999998357, 6.000000000000000000 ) ) ;
#17 = VERTEX_POINT ( 'NONE', #160 ) ;
#18 = SECURITY_CLASSIFICATION ( '', '', #108 ) ;
#19 = COORDINATED_UNIVERSAL_TIME_OFFSET ( 1, 0, .AHEAD. ) ;
#20 = PERSON_AND_ORGANIZATION ( #215, #143 ) ;
#21 = DATE_AND_TIME ( #229, #81 ) ;
#22 = APPROVAL_ROLE ( '' ) ;
#23 = EDGE_LOOP ( 'NONE', ( #25 ) ) ;
#24 = AXIS2_PLACEMENT_3D ( 'NONE', #182, #14, #202 ) ;
#25 = ORIENTED_EDGE ( 'NONE', *, *, #198, .T. ) ;
#26 = CARTESIAN_POINT ( 'NONE',  ( 2.793185071074506684E-13, -9.797174393178826052E-15, 80.00000000000000000 ) ) ;
#27 = AXIS2_PLACEMENT_3D ( 'NONE', #125, #31, #199 ) ;
#28 = CC_DESIGN_DATE_AND_TIME_ASSIGNMENT ( #226, #52, ( #15 ) ) ;
#29 = CARTESIAN_POINT ( 'NONE',  ( 2.793185071074506684E-13, -9.797174393178826052E-15, 80.00000000000000000 ) ) ;
#30 = ORIENTED_EDGE ( 'NONE', *, *, #89, .F. ) ;
#31 = DIRECTION ( 'NONE',  ( -3.491481338843133355E-15, 1.224646799147353207E-16, -1.000000000000000000 ) ) ;
#32 = CC_DESIGN_PERSON_AND_ORGANIZATION_ASSIGNMENT ( #41, #184, ( #93 ) ) ;
#33 = AXIS2_PLACEMENT_3D ( 'NONE', #217, #9, #155 ) ;
#34 = VERTEX_POINT ( 'NONE', #16 ) ;
#35 = TOROIDAL_SURFACE ( 'NONE', #104, 9.899999999999996803, 8.000000000000000000 ) ;
#36 = DIRECTION ( 'NONE',  ( 3.491481338843133355E-15, 6.327045624920145811E-17, 1.000000000000000000 ) ) ;
#37 = DIRECTION ( 'NONE',  ( 3.491481338843133355E-15, -1.224646799147353207E-16, 1.000000000000000000 ) ) ;
#38 = CLOSED_SHELL ( 'NONE', ( #177, #130, #77, #173, #110, #166 ) ) ;
#39 = APPROVAL_STATUS ( 'not_yet_approved' ) ;
#40 = ORIENTED_EDGE ( 'NONE', *, *, #89, .T. ) ;
#41 = PERSON_AND_ORGANIZATION ( #215, #143 ) ;
#42 = COORDINATED_UNIVERSAL_TIME_OFFSET ( 1, 0, .AHEAD. ) ;
#43 = ORIENTED_EDGE ( 'NONE', *, *, #112, .F. ) ;
#44 = DIRECTION ( 'NONE',  ( -3.491481338843133355E-15, 1.224646799147353207E-16, -1.000000000000000000 ) ) ;
#45 = DIRECTION ( 'NONE',  ( 3.491481338843133355E-15, 6.327045624920145811E-17, 1.000000000000000000 ) ) ;
#46 = CC_DESIGN_PERSON_AND_ORGANIZATION_ASSIGNMENT ( #113, #90, ( #15 ) ) ;
#47 = ORIENTED_EDGE ( 'NONE', *, *, #112, .T. ) ;
#48 = ORIENTED_EDGE ( 'NONE', *, *, #198, .F. ) ;
#49 = DIRECTION ( 'NONE',  ( 3.491481338843133355E-15, 6.327045624920145811E-17, 1.000000000000000000 ) ) ;
#50 = CARTESIAN_POINT ( 'NONE',  ( 2.094888803305880013E-14, 2.249639673992774917E-32, 6.000000000000000000 ) ) ;
#51 = CC_DESIGN_DATE_AND_TIME_ASSIGNMENT ( #163, #148, ( #18 ) ) ;
#52 = DATE_TIME_ROLE ( 'creation_date' ) ;
#53 = PERSON_AND_ORGANIZATION_ROLE ( 'design_supplier' ) ;
#54 = EDGE_CURVE ( 'NONE', #106, #106, #204, .T. ) ;
#55 = SHAPE_DEFINITION_REPRESENTATION ( #183, #142 ) ;
#56 = APPLICATION_PROTOCOL_DEFINITION ( 'international standard', 'config_control_design', 1994, #170 ) ;
#57 = PERSON_AND_ORGANIZATION ( #215, #143 ) ;
#58 = DIRECTION ( 'NONE',  ( 2.209076172941777367E-31, -1.000000000000000000, 6.327045624920144578E-17 ) ) ;
#59 = CARTESIAN_POINT ( 'NONE',  ( 2.094888803305880013E-14, 3.796227374952087486E-16, 6.000000000000000000 ) ) ;
#60 = ORIENTED_EDGE ( 'NONE', *, *, #68, .F. ) ;
#61 = ADVANCED_FACE ( 'NONE', ( #158 ), #171, .T. ) ;
#62 = PRODUCT ( '61359', '61359', '', ( #74 ) ) ;
#63 = CARTESIAN_POINT ( 'NONE',  ( 2.094888803305880013E-14, 3.796227374952087486E-16, 6.000000000000000000 ) ) ;
#64 = EDGE_LOOP ( 'NONE', ( #176 ) ) ;
#65 = FACE_OUTER_BOUND ( 'NONE', #120, .T. ) ;
#66 = FACE_OUTER_BOUND ( 'NONE', #174, .T. ) ;
#67 = DIRECTION ( 'NONE',  ( 0.0000000000000000000, 1.000000000000000000, 0.0000000000000000000 ) ) ;
#68 = EDGE_CURVE ( 'NONE', #239, #239, #211, .T. ) ;
#69 = VERTEX_POINT ( 'NONE', #224 ) ;
#70 = APPROVAL_DATE_TIME ( #206, #235 ) ;
#71 = AXIS2_PLACEMENT_3D ( 'NONE', #84, #126, #238 ) ;
#72 = CALENDAR_DATE ( 2021, 22, 11 ) ;
#73 = APPLICATION_PROTOCOL_DEFINITION ( 'international standard', 'config_control_design', 1994, #156 ) ;
#74 = MECHANICAL_CONTEXT ( 'NONE', #156, 'mechanical' ) ;
#75 = AXIS2_PLACEMENT_3D ( 'NONE', #83, #82, #67 ) ;
#76 = ORIENTED_EDGE ( 'NONE', *, *, #85, .F. ) ;
#77 = ADVANCED_FACE ( 'NONE', ( #78 ), #194, .F. ) ;
#78 = FACE_OUTER_BOUND ( 'NONE', #11, .T. ) ;
#79 = EDGE_LOOP ( 'NONE', ( #47 ) ) ;
#80 = FACE_OUTER_BOUND ( 'NONE', #114, .T. ) ;
#81 = LOCAL_TIME ( 8, 49, 28.00000000000000000, #149 ) ;
#82 = DIRECTION ( 'NONE',  ( -3.491481338843133355E-15, -6.327045624920145811E-17, -1.000000000000000000 ) ) ;
#83 = CARTESIAN_POINT ( 'NONE',  ( 5.777862704243943759E-14, 2.561476896069271305E-16, 16.54845649599942803 ) ) ;
#84 = CARTESIAN_POINT ( 'NONE',  ( 4.364351673553916694E-14, 7.908807031150182633E-16, 12.50000000000000000 ) ) ;
#85 = EDGE_CURVE ( 'NONE', #221, #221, #115, .T. ) ;
#86 = CARTESIAN_POINT ( 'NONE',  ( 0.0000000000000000000, 0.0000000000000000000, 0.0000000000000000000 ) ) ;
#87 = CC_DESIGN_APPROVAL ( #235, ( #93 ) ) ;
#88 = DATE_AND_TIME ( #189, #228 ) ;
#89 = EDGE_CURVE ( 'NONE', #34, #34, #237, .T. ) ;
#90 = PERSON_AND_ORGANIZATION_ROLE ( 'creator' ) ;
#91 = PRODUCT_RELATED_PRODUCT_CATEGORY ( 'detail', '', ( #62 ) ) ;
#92 = CALENDAR_DATE ( 2021, 22, 11 ) ;
#93 = PRODUCT_DEFINITION_FORMATION_WITH_SPECIFIED_SOURCE ( 'ANY', '', #62, .NOT_KNOWN. ) ;
#94 = EDGE_LOOP ( 'NONE', ( #100 ) ) ;
#95 = ORIENTED_EDGE ( 'NONE', *, *, #151, .F. ) ;
#96 = EDGE_LOOP ( 'NONE', ( #48 ) ) ;
#97 = ORIENTED_EDGE ( 'NONE', *, *, #151, .T. ) ;
#98 = AXIS2_PLACEMENT_3D ( 'NONE', #26, #236, #117 ) ;
#99 = LOCAL_TIME ( 8, 49, 28.00000000000000000, #164 ) ;
#100 = ORIENTED_EDGE ( 'NONE', *, *, #54, .F. ) ;
#101 = FACE_OUTER_BOUND ( 'NONE', #152, .T. ) ;
#102 = DIRECTION ( 'NONE',  ( -4.275831445896958607E-31, -1.000000000000000000, -1.224646799147353207E-16 ) ) ;
#103 = AXIS2_PLACEMENT_3D ( 'NONE', #59, #154, #216 ) ;
#104 = AXIS2_PLACEMENT_3D ( 'NONE', #105, #49, #107 ) ;
#105 = CARTESIAN_POINT ( 'NONE',  ( 4.364351673553917325E-14, 0.0000000000000000000, 12.50000000000000178 ) ) ;
#106 = VERTEX_POINT ( 'NONE', #180 ) ;
#107 = DIRECTION ( 'NONE',  ( 2.268417612949062083E-31, -1.000000000000000000, 6.327045624920145811E-17 ) ) ;
#108 = SECURITY_CLASSIFICATION_LEVEL ( 'unclassified' ) ;
#109 = CIRCLE ( 'NONE', #2, 1.999999999999999112 ) ;
#110 = ADVANCED_FACE ( 'NONE', ( #232, #80 ), #195, .T. ) ;
#111 = PERSON_AND_ORGANIZATION ( #215, #143 ) ;
#112 = EDGE_CURVE ( 'NONE', #17, #17, #109, .T. ) ;
#113 = PERSON_AND_ORGANIZATION ( #215, #143 ) ;
#114 = EDGE_LOOP ( 'NONE', ( #95 ) ) ;
#115 = CIRCLE ( 'NONE', #33, 2.000000000000000000 ) ;
#116 = APPROVAL_PERSON_ORGANIZATION ( #133, #235, #186 ) ;
#117 = DIRECTION ( 'NONE',  ( 0.0000000000000000000, 1.000000000000000000, 0.0000000000000000000 ) ) ;
#118 = DIRECTION ( 'NONE',  ( -4.275831445896958607E-31, -1.000000000000000000, -1.224646799147353207E-16 ) ) ;
#119 = CARTESIAN_POINT ( 'NONE',  ( 2.775727664380291081E-13, -9.735942053221458478E-15, 79.50000000000000000 ) ) ;
#120 = EDGE_LOOP ( 'NONE', ( #43 ) ) ;
#121 = FACE_OUTER_BOUND ( 'NONE', #23, .T. ) ;
#122 = FACE_OUTER_BOUND ( 'NONE', #64, .T. ) ;
#123 = AXIS2_PLACEMENT_3D ( 'NONE', #207, #128, #5 ) ;
#124 = CYLINDRICAL_SURFACE ( 'NONE', #27, 2.999999999999993783 ) ;
#125 = CARTESIAN_POINT ( 'NONE',  ( 0.0000000000000000000, 0.0000000000000000000, 0.0000000000000000000 ) ) ;
#126 = DIRECTION ( 'NONE',  ( 3.491481338843133355E-15, 6.327045624920145811E-17, 1.000000000000000000 ) ) ;
#127 = AXIS2_PLACEMENT_3D ( 'NONE', #7, #45, #58 ) ;
#128 = DIRECTION ( 'NONE',  ( 0.0000000000000000000, 0.0000000000000000000, 1.000000000000000000 ) ) ;
#129 = COORDINATED_UNIVERSAL_TIME_OFFSET ( 1, 0, .AHEAD. ) ;
#130 = ADVANCED_FACE ( 'NONE', ( #210, #196 ), #175, .T. ) ;
#131 = APPROVAL_DATE_TIME ( #88, #214 ) ;
#132 = AXIS2_PLACEMENT_3D ( 'NONE', #50, #37, #102 ) ;
#133 = PERSON_AND_ORGANIZATION ( #215, #143 ) ;
#134 = DIRECTION ( 'NONE',  ( 0.0000000000000000000, 1.000000000000000000, 0.0000000000000000000 ) ) ;
#135 = DIRECTION ( 'NONE',  ( 0.0000000000000000000, -1.000000000000000000, 0.0000000000000000000 ) ) ;
#136 = CIRCLE ( 'NONE', #71, 1.899999999999996358 ) ;
#137 = DIRECTION ( 'NONE',  ( 3.491481338843133355E-15, 6.327045624920145811E-17, 1.000000000000000000 ) ) ;
#138 = CC_DESIGN_PERSON_AND_ORGANIZATION_ASSIGNMENT ( #147, #53, ( #93 ) ) ;
#139 = DIRECTION ( 'NONE',  ( 4.275831445896958607E-31, 1.000000000000000000, 1.224646799147353207E-16 ) ) ;
#140 = CARTESIAN_POINT ( 'NONE',  ( 2.793185071074506684E-13, 2.499999999999992450, 80.00000000000000000 ) ) ;
#141 = FACE_OUTER_BOUND ( 'NONE', #233, .T. ) ;
#142 = ADVANCED_BREP_SHAPE_REPRESENTATION ( '61359', ( #185, #187, #123 ), #219 ) ;
#143 = ORGANIZATION ( 'UNSPECIFIED', 'UNSPECIFIED', '' ) ;
#144 = FACE_OUTER_BOUND ( 'NONE', #218, .T. ) ;
#145 = APPROVAL_STATUS ( 'not_yet_approved' ) ;
#146 = AXIS2_PLACEMENT_3D ( 'NONE', #119, #44, #197 ) ;
#147 = PERSON_AND_ORGANIZATION ( #215, #143 ) ;
#148 = DATE_TIME_ROLE ( 'classification_date' ) ;
#149 = COORDINATED_UNIVERSAL_TIME_OFFSET ( 1, 0, .AHEAD. ) ;
#150 = ORIENTED_EDGE ( 'NONE', *, *, #85, .T. ) ;
#151 = EDGE_CURVE ( 'NONE', #240, #240, #136, .T. ) ;
#152 = EDGE_LOOP ( 'NONE', ( #76 ) ) ;
#153 = DIRECTION ( 'NONE',  ( -3.491481338843133355E-15, 1.224646799147353207E-16, -1.000000000000000000 ) ) ;
#154 = DIRECTION ( 'NONE',  ( 3.491481338843133355E-15, 6.327045624920145811E-17, 1.000000000000000000 ) ) ;
#155 = DIRECTION ( 'NONE',  ( 0.0000000000000000000, -1.000000000000000000, 0.0000000000000000000 ) ) ;
#156 = APPLICATION_CONTEXT ( 'configuration controlled 3d designs of mechanical parts and assemblies' ) ;
#157 = APPROVAL ( #3, 'UNSPECIFIED' ) ;
#158 = FACE_OUTER_BOUND ( 'NONE', #79, .T. ) ;
#159 = SPHERICAL_SURFACE ( 'NONE', #24, 2.000000000000000888 ) ;
#160 = CARTESIAN_POINT ( 'NONE',  ( 2.094888803305880013E-14, -1.999999999999998668, 6.000000000000000000 ) ) ;
#161 = CARTESIAN_POINT ( 'NONE',  ( 4.364351673553916694E-14, -1.899999999999995470, 12.50000000000000000 ) ) ;
#162 = CC_DESIGN_PERSON_AND_ORGANIZATION_ASSIGNMENT ( #111, #167, ( #18 ) ) ;
#163 = DATE_AND_TIME ( #72, #241 ) ;
#164 = COORDINATED_UNIVERSAL_TIME_OFFSET ( 1, 0, .AHEAD. ) ;
#165 = CC_DESIGN_APPROVAL ( #157, ( #18 ) ) ;
#166 = ADVANCED_FACE ( 'NONE', ( #141 ), #225, .F. ) ;
#167 = PERSON_AND_ORGANIZATION_ROLE ( 'classification_officer' ) ;
#168 = AXIS2_PLACEMENT_3D ( 'NONE', #12, #153, #139 ) ;
#169 = DIRECTION ( 'NONE',  ( -3.491481338843133355E-15, 1.224646799147353207E-16, -1.000000000000000000 ) ) ;
#170 = APPLICATION_CONTEXT ( 'configuration controlled 3d designs of mechanical parts and assemblies' ) ;
#171 = PLANE ( 'NONE',  #208 ) ;
#172 = CARTESIAN_POINT ( 'NONE',  ( 2.094888803305880013E-14, 2.249639673992774917E-32, 6.000000000000000000 ) ) ;
#173 = ADVANCED_FACE ( 'NONE', ( #66, #121 ), #35, .F. ) ;
#174 = EDGE_LOOP ( 'NONE', ( #97 ) ) ;
#175 = CONICAL_SURFACE ( 'NONE', #201, 2.500000000000002220, 0.7853981633974471688 ) ;
#176 = ORIENTED_EDGE ( 'NONE', *, *, #54, .T. ) ;
#177 = ADVANCED_FACE ( 'NONE', ( #122, #178 ), #124, .T. ) ;
#178 = FACE_OUTER_BOUND ( 'NONE', #96, .T. ) ;
#179 = APPROVAL_PERSON_ORGANIZATION ( #57, #214, #22 ) ;
#180 = CARTESIAN_POINT ( 'NONE',  ( 2.775727664380291081E-13, 2.999999999999992006, 79.50000000000000000 ) ) ;
#181 = DIRECTION ( 'NONE',  ( 2.209076172941777805E-31, -1.000000000000000000, 6.327045624920145811E-17 ) ) ;
#182 = CARTESIAN_POINT ( 'NONE',  ( 6.982962677686268288E-15, -6.786102288236724643E-16, 2.000000000000000444 ) ) ;
#183 = PRODUCT_DEFINITION_SHAPE ( 'NONE', 'NONE',  #15 ) ;
#184 = PERSON_AND_ORGANIZATION_ROLE ( 'creator' ) ;
#185 = MANIFOLD_SOLID_BREP ( 'Corps-Déplacer/Copier1[1]', #38 ) ;
#186 = APPROVAL_ROLE ( '' ) ;
#187 = MANIFOLD_SOLID_BREP ( 'Corps-Déplacer/Copier1[2]', #227 ) ;
#188 = ADVANCED_FACE ( 'NONE', ( #101 ), #159, .T. ) ;
#189 = CALENDAR_DATE ( 2021, 22, 11 ) ;
#190 = DESIGN_CONTEXT ( 'detailed design', #170, 'design' ) ;
#191 = APPROVAL_ROLE ( '' ) ;
#192 = LOCAL_TIME ( 8, 49, 28.00000000000000000, #42 ) ;
#193 = EDGE_LOOP ( 'NONE', ( #213 ) ) ;
#194 = PLANE ( 'NONE',  #168 ) ;
#195 = CYLINDRICAL_SURFACE ( 'NONE', #127, 1.899999999999997691 ) ;
#196 = FACE_BOUND ( 'NONE', #193, .T. ) ;
#197 = DIRECTION ( 'NONE',  ( 0.0000000000000000000, 1.000000000000000000, 0.0000000000000000000 ) ) ;
#198 = EDGE_CURVE ( 'NONE', #69, #69, #209, .T. ) ;
#199 = DIRECTION ( 'NONE',  ( 4.275831445896958607E-31, 1.000000000000000000, 1.224646799147353454E-16 ) ) ;
#200 = CARTESIAN_POINT ( 'NONE',  ( 6.982962677686269866E-15, -2.000000000000000000, 2.000000000000000888 ) ) ;
#201 = AXIS2_PLACEMENT_3D ( 'NONE', #29, #169, #134 ) ;
#202 = DIRECTION ( 'NONE',  ( 0.0000000000000000000, 1.000000000000000000, 0.0000000000000000000 ) ) ;
#203 =( NAMED_UNIT ( * ) PLANE_ANGLE_UNIT ( ) SI_UNIT ( $, .RADIAN. ) );
#204 = CIRCLE ( 'NONE', #146, 3.000000000000001332 ) ;
#205 = PERSON_AND_ORGANIZATION ( #215, #143 ) ;
#206 = DATE_AND_TIME ( #1, #192 ) ;
#207 = CARTESIAN_POINT ( 'NONE',  ( 0.0000000000000000000, 0.0000000000000000000, 0.0000000000000000000 ) ) ;
#208 = AXIS2_PLACEMENT_3D ( 'NONE', #172, #10, #118 ) ;
#209 = CIRCLE ( 'NONE', #75, 2.999999999999993783 ) ;
#210 = FACE_OUTER_BOUND ( 'NONE', #94, .T. ) ;
#211 = CIRCLE ( 'NONE', #98, 2.500000000000002220 ) ;
#212 = CC_DESIGN_APPROVAL ( #214, ( #15 ) ) ;
#213 = ORIENTED_EDGE ( 'NONE', *, *, #68, .T. ) ;
#214 = APPROVAL ( #145, 'UNSPECIFIED' ) ;
#215 = PERSON ( 'UNSPECIFIED', 'UNSPECIFIED', 'UNSPECIFIED', ('UNSPECIFIED'), ('UNSPECIFIED'), ('UNSPECIFIED') ) ;
#216 = DIRECTION ( 'NONE',  ( 0.0000000000000000000, -1.000000000000000000, 0.0000000000000000000 ) ) ;
#217 = CARTESIAN_POINT ( 'NONE',  ( 6.982962677686269866E-15, 1.265409124984029655E-16, 2.000000000000000888 ) ) ;
#218 = EDGE_LOOP ( 'NONE', ( #150 ) ) ;
#219 =( GEOMETRIC_REPRESENTATION_CONTEXT ( 3 ) GLOBAL_UNCERTAINTY_ASSIGNED_CONTEXT ( ( #4 ) ) GLOBAL_UNIT_ASSIGNED_CONTEXT ( ( #242, #203, #13 ) ) REPRESENTATION_CONTEXT ( 'NONE', 'WORKASPACE' ) );
#220 = CYLINDRICAL_SURFACE ( 'NONE', #222, 1.999999999999999556 ) ;
#221 = VERTEX_POINT ( 'NONE', #200 ) ;
#222 = AXIS2_PLACEMENT_3D ( 'NONE', #86, #36, #181 ) ;
#223 = ADVANCED_FACE ( 'NONE', ( #144, #65 ), #220, .T. ) ;
#224 = CARTESIAN_POINT ( 'NONE',  ( 5.777862704243943759E-14, 2.999999999999994227, 16.54845649599942803 ) ) ;
#225 = PLANE ( 'NONE',  #132 ) ;
#226 = DATE_AND_TIME ( #92, #99 ) ;
#227 = CLOSED_SHELL ( 'NONE', ( #61, #188, #223 ) ) ;
#228 = LOCAL_TIME ( 8, 49, 28.00000000000000000, #129 ) ;
#229 = CALENDAR_DATE ( 2021, 22, 11 ) ;
#230 = PERSON_AND_ORGANIZATION_ROLE ( 'design_owner' ) ;
#231 = APPROVAL_PERSON_ORGANIZATION ( #205, #157, #191 ) ;
#232 = FACE_OUTER_BOUND ( 'NONE', #234, .T. ) ;
#233 = EDGE_LOOP ( 'NONE', ( #30 ) ) ;
#234 = EDGE_LOOP ( 'NONE', ( #40 ) ) ;
#235 = APPROVAL ( #39, 'UNSPECIFIED' ) ;
#236 = DIRECTION ( 'NONE',  ( -3.491481338843133355E-15, 1.224646799147353207E-16, -1.000000000000000000 ) ) ;
#237 = CIRCLE ( 'NONE', #103, 1.899999999999998801 ) ;
#238 = DIRECTION ( 'NONE',  ( 0.0000000000000000000, -1.000000000000000000, 0.0000000000000000000 ) ) ;
#239 = VERTEX_POINT ( 'NONE', #140 ) ;
#240 = VERTEX_POINT ( 'NONE', #161 ) ;
#241 = LOCAL_TIME ( 8, 49, 28.00000000000000000, #19 ) ;
#242 =( LENGTH_UNIT ( ) NAMED_UNIT ( * ) SI_UNIT ( .MILLI., .METRE. ) );
#243 = APPROVAL_DATE_TIME ( #21, #157 ) ;
ENDSEC;
END-ISO-10303-21;
