ISO-10303-21;
HEADER;
FILE_DESCRIPTION (( 'STEP AP203' ),
    '1' );
FILE_NAME ('61358.step',
    '2021-11-22T07:49:27',
    ( '' ),
    ( '' ),
    'SwSTEP 2.0',
    'SolidWorks 2019',
    '' );
FILE_SCHEMA (( 'CONFIG_CONTROL_DESIGN' ));
ENDSEC;

DATA;
#1 = DIRECTION ( 'NONE',  ( 0.0000000000000000000, 0.0000000000000000000, 1.000000000000000000 ) ) ;
#2 = CIRCLE ( 'NONE', #38, 1.499999999999998890 ) ;
#3 = CC_DESIGN_PERSON_AND_ORGANIZATION_ASSIGNMENT ( #82, #32, ( #57 ) ) ;
#4 = EDGE_LOOP ( 'NONE', ( #201 ) ) ;
#5 = COORDINATED_UNIVERSAL_TIME_OFFSET ( 1, 0, .AHEAD. ) ;
#6 = DIRECTION ( 'NONE',  ( 3.491481338843133355E-15, 6.327045624920145811E-17, 1.000000000000000000 ) ) ;
#7 = EDGE_LOOP ( 'NONE', ( #68 ) ) ;
#8 = DATE_AND_TIME ( #44, #137 ) ;
#9 = DIRECTION ( 'NONE',  ( 3.491481338843133355E-15, 6.327045624920145811E-17, 1.000000000000000000 ) ) ;
#10 = DIRECTION ( 'NONE',  ( 0.0000000000000000000, -1.000000000000000000, 0.0000000000000000000 ) ) ;
#11 = CARTESIAN_POINT ( 'NONE',  ( 5.237222008264700033E-15, 9.490568437380218716E-17, 1.500000000000000000 ) ) ;
#12 = APPLICATION_CONTEXT ( 'configuration controlled 3d designs of mechanical parts and assemblies' ) ;
#13 = ADVANCED_FACE ( 'NONE', ( #242, #124 ), #31, .T. ) ;
#14 = APPROVAL_PERSON_ORGANIZATION ( #83, #26, #65 ) ;
#15 = PRODUCT_RELATED_PRODUCT_CATEGORY ( 'detail', '', ( #57 ) ) ;
#16 = DATE_AND_TIME ( #227, #197 ) ;
#17 = LOCAL_TIME ( 8, 49, 27.00000000000000000, #5 ) ;
#18 = DESIGN_CONTEXT ( 'detailed design', #173, 'design' ) ;
#19 = AXIS2_PLACEMENT_3D ( 'NONE', #73, #135, #10 ) ;
#20 = AXIS2_PLACEMENT_3D ( 'NONE', #223, #165, #48 ) ;
#21 = DATE_AND_TIME ( #86, #88 ) ;
#22 = ORIENTED_EDGE ( 'NONE', *, *, #129, .T. ) ;
#23 = DIRECTION ( 'NONE',  ( 3.491481338843133355E-15, 6.327045624920145811E-17, 1.000000000000000000 ) ) ;
#24 = SECURITY_CLASSIFICATION ( '', '', #134 ) ;
#25 = ORIENTED_EDGE ( 'NONE', *, *, #171, .F. ) ;
#26 = APPROVAL ( #243, 'UNSPECIFIED' ) ;
#27 = MANIFOLD_SOLID_BREP ( 'Corps-Déplacer/Copier1[2]', #122 ) ;
#28 = EDGE_LOOP ( 'NONE', ( #59 ) ) ;
#29 = FACE_OUTER_BOUND ( 'NONE', #54, .T. ) ;
#30 = MANIFOLD_SOLID_BREP ( 'Corps-Déplacer/Copier1[1]', #96 ) ;
#31 = CYLINDRICAL_SURFACE ( 'NONE', #130, 1.424999999999998712 ) ;
#32 = PERSON_AND_ORGANIZATION_ROLE ( 'design_owner' ) ;
#33 = PERSON_AND_ORGANIZATION ( #102, #94 ) ;
#34 = FACE_OUTER_BOUND ( 'NONE', #108, .T. ) ;
#35 = PRODUCT_DEFINITION_SHAPE ( 'NONE', 'NONE',  #89 ) ;
#36 = CARTESIAN_POINT ( 'NONE',  ( 4.876372018824239844E-14, 2.999999999999990230, 13.96648455363068386 ) ) ;
#37 = ADVANCED_FACE ( 'NONE', ( #34 ), #193, .T. ) ;
#38 = AXIS2_PLACEMENT_3D ( 'NONE', #62, #116, #150 ) ;
#39 = AXIS2_PLACEMENT_3D ( 'NONE', #235, #93, #133 ) ;
#40 = ORIENTED_EDGE ( 'NONE', *, *, #55, .T. ) ;
#41 = CYLINDRICAL_SURFACE ( 'NONE', #71, 2.999999999999989786 ) ;
#42 = CARTESIAN_POINT ( 'NONE',  ( 2.286920276942252663E-13, 2.999999999999985345, 65.50000000000000000 ) ) ;
#43 = TOROIDAL_SURFACE ( 'NONE', #117, 9.424999999999998934, 8.000000000000000000 ) ;
#44 = CALENDAR_DATE ( 2021, 22, 11 ) ;
#45 = ADVANCED_FACE ( 'NONE', ( #162 ), #225, .T. ) ;
#46 = DIRECTION ( 'NONE',  ( -3.491481338843133355E-15, 1.224646799147353207E-16, -1.000000000000000000 ) ) ;
#47 = COORDINATED_UNIVERSAL_TIME_OFFSET ( 1, 0, .AHEAD. ) ;
#48 = DIRECTION ( 'NONE',  ( 0.0000000000000000000, 1.000000000000000000, 0.0000000000000000000 ) ) ;
#49 = CARTESIAN_POINT ( 'NONE',  ( 5.237222008264700033E-15, -1.499999999999999556, 1.500000000000000000 ) ) ;
#50 = CARTESIAN_POINT ( 'NONE',  ( 3.212162831735683318E-14, 5.820881974926535230E-16, 9.200000000000001066 ) ) ;
#51 = CARTESIAN_POINT ( 'NONE',  ( 3.212162831735683318E-14, -1.424999999999997824, 9.200000000000001066 ) ) ;
#52 = DIRECTION ( 'NONE',  ( -4.275831445896958607E-31, -1.000000000000000000, -1.224646799147353207E-16 ) ) ;
#53 = CARTESIAN_POINT ( 'NONE',  ( 2.304377683636468267E-13, 2.499999999999985345, 66.00000000000000000 ) ) ;
#54 = EDGE_LOOP ( 'NONE', ( #25 ) ) ;
#55 = EDGE_CURVE ( 'NONE', #180, #180, #232, .T. ) ;
#56 = UNCERTAINTY_MEASURE_WITH_UNIT (LENGTH_MEASURE( 1.000000000000000082E-05 ), #127, 'distance_accuracy_value', 'NONE');
#57 = PRODUCT ( '61358', '61358', '', ( #64 ) ) ;
#58 = ORIENTED_EDGE ( 'NONE', *, *, #67, .T. ) ;
#59 = ORIENTED_EDGE ( 'NONE', *, *, #67, .F. ) ;
#60 = ADVANCED_FACE ( 'NONE', ( #79, #239 ), #105, .T. ) ;
#61 = DIRECTION ( 'NONE',  ( -3.491481338843133355E-15, -6.327045624920145811E-17, -1.000000000000000000 ) ) ;
#62 = CARTESIAN_POINT ( 'NONE',  ( 1.745740669421566678E-14, 3.163522812460073152E-16, 5.000000000000000000 ) ) ;
#63 = CARTESIAN_POINT ( 'NONE',  ( 2.286920276942252663E-13, -8.021436534415164826E-15, 65.50000000000000000 ) ) ;
#64 = MECHANICAL_CONTEXT ( 'NONE', #12, 'mechanical' ) ;
#65 = APPROVAL_ROLE ( '' ) ;
#66 = AXIS2_PLACEMENT_3D ( 'NONE', #155, #6, #200 ) ;
#67 = EDGE_CURVE ( 'NONE', #142, #142, #229, .T. ) ;
#68 = ORIENTED_EDGE ( 'NONE', *, *, #84, .T. ) ;
#69 = CALENDAR_DATE ( 2021, 22, 11 ) ;
#70 = FACE_OUTER_BOUND ( 'NONE', #177, .T. ) ;
#71 = AXIS2_PLACEMENT_3D ( 'NONE', #113, #46, #80 ) ;
#72 = PERSON_AND_ORGANIZATION_ROLE ( 'creator' ) ;
#73 = CARTESIAN_POINT ( 'NONE',  ( 1.745740669421566678E-14, 3.163522812460073152E-16, 5.000000000000000000 ) ) ;
#74 = CARTESIAN_POINT ( 'NONE',  ( 2.304377683636468267E-13, 1.874699728327305041E-32, 66.00000000000000000 ) ) ;
#75 = APPROVAL_ROLE ( '' ) ;
#76 = DIRECTION ( 'NONE',  ( 0.0000000000000000000, -1.000000000000000000, 0.0000000000000000000 ) ) ;
#77 = PERSON_AND_ORGANIZATION ( #102, #94 ) ;
#78 = CARTESIAN_POINT ( 'NONE',  ( 4.876372018824239844E-14, 3.015776524129845404E-16, 13.96648455363068386 ) ) ;
#79 = FACE_OUTER_BOUND ( 'NONE', #4, .T. ) ;
#80 = DIRECTION ( 'NONE',  ( 4.275831445896958607E-31, 1.000000000000000000, 1.224646799147353207E-16 ) ) ;
#81 = VERTEX_POINT ( 'NONE', #49 ) ;
#82 = PERSON_AND_ORGANIZATION ( #102, #94 ) ;
#83 = PERSON_AND_ORGANIZATION ( #102, #94 ) ;
#84 = EDGE_CURVE ( 'NONE', #166, #166, #184, .T. ) ;
#85 = COORDINATED_UNIVERSAL_TIME_OFFSET ( 1, 0, .AHEAD. ) ;
#86 = CALENDAR_DATE ( 2021, 22, 11 ) ;
#87 = PERSON_AND_ORGANIZATION ( #102, #94 ) ;
#88 = LOCAL_TIME ( 8, 49, 27.00000000000000000, #85 ) ;
#89 = PRODUCT_DEFINITION ( 'UNKNOWN', '', #103, #18 ) ;
#90 = ORIENTED_EDGE ( 'NONE', *, *, #182, .T. ) ;
#91 = APPROVAL_STATUS ( 'not_yet_approved' ) ;
#92 = ORIENTED_EDGE ( 'NONE', *, *, #144, .T. ) ;
#93 = DIRECTION ( 'NONE',  ( 3.491481338843133355E-15, -1.224646799147353207E-16, 1.000000000000000000 ) ) ;
#94 = ORGANIZATION ( 'UNSPECIFIED', 'UNSPECIFIED', '' ) ;
#95 = PLANE ( 'NONE',  #206 ) ;
#96 = CLOSED_SHELL ( 'NONE', ( #210, #60, #192, #106, #13, #230 ) ) ;
#97 = AXIS2_PLACEMENT_3D ( 'NONE', #78, #61, #237 ) ;
#98 = DIRECTION ( 'NONE',  ( -1.000000000000000000, 0.0000000000000000000, 3.491481338843133355E-15 ) ) ;
#99 = CARTESIAN_POINT ( 'NONE',  ( 1.745740669421566678E-14, -1.499999999999998668, 5.000000000000000000 ) ) ;
#100 = EDGE_LOOP ( 'NONE', ( #231 ) ) ;
#101 = DIRECTION ( 'NONE',  ( -3.491481338843133355E-15, 1.224646799147353207E-16, -1.000000000000000000 ) ) ;
#102 = PERSON ( 'UNSPECIFIED', 'UNSPECIFIED', 'UNSPECIFIED', ('UNSPECIFIED'), ('UNSPECIFIED'), ('UNSPECIFIED') ) ;
#103 = PRODUCT_DEFINITION_FORMATION_WITH_SPECIFIED_SOURCE ( 'ANY', '', #57, .NOT_KNOWN. ) ;
#104 = PERSON_AND_ORGANIZATION_ROLE ( 'creator' ) ;
#105 = CONICAL_SURFACE ( 'NONE', #20, 2.499999999999993339, 0.7853981633974473908 ) ;
#106 = ADVANCED_FACE ( 'NONE', ( #234, #214 ), #43, .F. ) ;
#107 = CC_DESIGN_APPROVAL ( #153, ( #24 ) ) ;
#108 = EDGE_LOOP ( 'NONE', ( #196 ) ) ;
#109 = CARTESIAN_POINT ( 'NONE',  ( 3.212162831735683949E-14, 0.0000000000000000000, 9.200000000000002842 ) ) ;
#110 = DIRECTION ( 'NONE',  ( 0.0000000000000000000, -1.000000000000000000, 0.0000000000000000000 ) ) ;
#111 = CALENDAR_DATE ( 2021, 22, 11 ) ;
#112 = CC_DESIGN_PERSON_AND_ORGANIZATION_ASSIGNMENT ( #178, #181, ( #103 ) ) ;
#113 = CARTESIAN_POINT ( 'NONE',  ( 0.0000000000000000000, 0.0000000000000000000, 0.0000000000000000000 ) ) ;
#114 = AXIS2_PLACEMENT_3D ( 'NONE', #63, #101, #140 ) ;
#115 = PERSON_AND_ORGANIZATION ( #102, #94 ) ;
#116 = DIRECTION ( 'NONE',  ( 3.491481338843133355E-15, 6.327045624920145811E-17, 1.000000000000000000 ) ) ;
#117 = AXIS2_PLACEMENT_3D ( 'NONE', #109, #9, #132 ) ;
#118 = EDGE_LOOP ( 'NONE', ( #40 ) ) ;
#119 = DIRECTION ( 'NONE',  ( 3.491481338843133355E-15, 6.327045624920145811E-17, 1.000000000000000000 ) ) ;
#120 = CARTESIAN_POINT ( 'NONE',  ( 0.0000000000000000000, 0.0000000000000000000, 0.0000000000000000000 ) ) ;
#121 = CARTESIAN_POINT ( 'NONE',  ( 5.237222008264699244E-15, -1.836970198721029688E-16, 1.499999999999999778 ) ) ;
#122 = CLOSED_SHELL ( 'NONE', ( #37, #45, #199 ) ) ;
#123 = APPLICATION_PROTOCOL_DEFINITION ( 'international standard', 'config_control_design', 1994, #173 ) ;
#124 = FACE_OUTER_BOUND ( 'NONE', #28, .T. ) ;
#125 = APPROVAL_PERSON_ORGANIZATION ( #202, #153, #75 ) ;
#126 = CARTESIAN_POINT ( 'NONE',  ( 1.745740669421566678E-14, -1.424999999999998934, 5.000000000000000000 ) ) ;
#127 =( LENGTH_UNIT ( ) NAMED_UNIT ( * ) SI_UNIT ( .MILLI., .METRE. ) );
#128 = APPROVAL_PERSON_ORGANIZATION ( #87, #168, #176 ) ;
#129 = EDGE_CURVE ( 'NONE', #143, #143, #172, .T. ) ;
#130 = AXIS2_PLACEMENT_3D ( 'NONE', #188, #119, #211 ) ;
#131 = EDGE_LOOP ( 'NONE', ( #167 ) ) ;
#132 = DIRECTION ( 'NONE',  ( 2.270035241873220395E-31, -1.000000000000000000, 6.327045624920145811E-17 ) ) ;
#133 = DIRECTION ( 'NONE',  ( -4.275831445896958607E-31, -1.000000000000000000, -1.224646799147353207E-16 ) ) ;
#134 = SECURITY_CLASSIFICATION_LEVEL ( 'unclassified' ) ;
#135 = DIRECTION ( 'NONE',  ( 3.491481338843133355E-15, 6.327045624920145811E-17, 1.000000000000000000 ) ) ;
#136 = FACE_OUTER_BOUND ( 'NONE', #118, .T. ) ;
#137 = LOCAL_TIME ( 8, 49, 27.00000000000000000, #47 ) ;
#138 = CC_DESIGN_DATE_AND_TIME_ASSIGNMENT ( #21, #233, ( #89 ) ) ;
#139 = CYLINDRICAL_SURFACE ( 'NONE', #66, 1.499999999999999112 ) ;
#140 = DIRECTION ( 'NONE',  ( 0.0000000000000000000, 1.000000000000000000, 0.0000000000000000000 ) ) ;
#141 = COORDINATED_UNIVERSAL_TIME_OFFSET ( 1, 0, .AHEAD. ) ;
#142 = VERTEX_POINT ( 'NONE', #51 ) ;
#143 = VERTEX_POINT ( 'NONE', #126 ) ;
#144 = EDGE_CURVE ( 'NONE', #212, #212, #191, .T. ) ;
#145 = AXIS2_PLACEMENT_3D ( 'NONE', #50, #149, #110 ) ;
#146 = AXIS2_PLACEMENT_3D ( 'NONE', #205, #241, #52 ) ;
#147 = CC_DESIGN_PERSON_AND_ORGANIZATION_ASSIGNMENT ( #77, #221, ( #24 ) ) ;
#148 = DATE_AND_TIME ( #69, #17 ) ;
#149 = DIRECTION ( 'NONE',  ( 3.491481338843133355E-15, 6.327045624920145811E-17, 1.000000000000000000 ) ) ;
#150 = DIRECTION ( 'NONE',  ( 0.0000000000000000000, -1.000000000000000000, 0.0000000000000000000 ) ) ;
#151 = APPROVAL_DATE_TIME ( #238, #153 ) ;
#152 = EDGE_LOOP ( 'NONE', ( #161 ) ) ;
#153 = APPROVAL ( #154, 'UNSPECIFIED' ) ;
#154 = APPROVAL_STATUS ( 'not_yet_approved' ) ;
#155 = CARTESIAN_POINT ( 'NONE',  ( 0.0000000000000000000, 0.0000000000000000000, 0.0000000000000000000 ) ) ;
#156 = CC_DESIGN_PERSON_AND_ORGANIZATION_ASSIGNMENT ( #33, #104, ( #89 ) ) ;
#157 = CIRCLE ( 'NONE', #174, 1.499999999999999556 ) ;
#158 = LOCAL_TIME ( 8, 49, 27.00000000000000000, #159 ) ;
#159 = COORDINATED_UNIVERSAL_TIME_OFFSET ( 1, 0, .AHEAD. ) ;
#160 = PLANE ( 'NONE',  #39 ) ;
#161 = ORIENTED_EDGE ( 'NONE', *, *, #84, .F. ) ;
#162 = FACE_OUTER_BOUND ( 'NONE', #131, .T. ) ;
#163 = ADVANCED_BREP_SHAPE_REPRESENTATION ( '61358', ( #30, #27, #224 ), #195 ) ;
#164 = AXIS2_PLACEMENT_3D ( 'NONE', #179, #218, #198 ) ;
#165 = DIRECTION ( 'NONE',  ( -3.491481338843133355E-15, 1.224646799147353207E-16, -1.000000000000000000 ) ) ;
#166 = VERTEX_POINT ( 'NONE', #53 ) ;
#167 = ORIENTED_EDGE ( 'NONE', *, *, #182, .F. ) ;
#168 = APPROVAL ( #91, 'UNSPECIFIED' ) ;
#169 = VERTEX_POINT ( 'NONE', #99 ) ;
#170 = AXIS2_PLACEMENT_3D ( 'NONE', #121, #98, #185 ) ;
#171 = EDGE_CURVE ( 'NONE', #169, #169, #2, .T. ) ;
#172 = CIRCLE ( 'NONE', #19, 1.424999999999999156 ) ;
#173 = APPLICATION_CONTEXT ( 'configuration controlled 3d designs of mechanical parts and assemblies' ) ;
#174 = AXIS2_PLACEMENT_3D ( 'NONE', #11, #23, #76 ) ;
#175 = EDGE_LOOP ( 'NONE', ( #92 ) ) ;
#176 = APPROVAL_ROLE ( '' ) ;
#177 = EDGE_LOOP ( 'NONE', ( #226 ) ) ;
#178 = PERSON_AND_ORGANIZATION ( #102, #94 ) ;
#179 = CARTESIAN_POINT ( 'NONE',  ( 2.304377683636468267E-13, -8.082668874372532400E-15, 66.00000000000000000 ) ) ;
#180 = VERTEX_POINT ( 'NONE', #42 ) ;
#181 = PERSON_AND_ORGANIZATION_ROLE ( 'design_supplier' ) ;
#182 = EDGE_CURVE ( 'NONE', #81, #81, #157, .T. ) ;
#183 = DATE_TIME_ROLE ( 'classification_date' ) ;
#184 = CIRCLE ( 'NONE', #164, 2.499999999999993339 ) ;
#185 = DIRECTION ( 'NONE',  ( 0.0000000000000000000, 1.000000000000000000, 0.0000000000000000000 ) ) ;
#186 = CC_DESIGN_PERSON_AND_ORGANIZATION_ASSIGNMENT ( #115, #72, ( #103 ) ) ;
#187 =( NAMED_UNIT ( * ) SI_UNIT ( $, .STERADIAN. ) SOLID_ANGLE_UNIT ( ) );
#188 = CARTESIAN_POINT ( 'NONE',  ( 0.0000000000000000000, 0.0000000000000000000, 0.0000000000000000000 ) ) ;
#189 = DIRECTION ( 'NONE',  ( 1.000000000000000000, 0.0000000000000000000, 0.0000000000000000000 ) ) ;
#190 = APPLICATION_PROTOCOL_DEFINITION ( 'international standard', 'config_control_design', 1994, #12 ) ;
#191 = CIRCLE ( 'NONE', #97, 2.999999999999989786 ) ;
#192 = ADVANCED_FACE ( 'NONE', ( #222 ), #95, .F. ) ;
#193 = PLANE ( 'NONE',  #146 ) ;
#194 = CC_DESIGN_SECURITY_CLASSIFICATION ( #24, ( #103 ) ) ;
#195 =( GEOMETRIC_REPRESENTATION_CONTEXT ( 3 ) GLOBAL_UNCERTAINTY_ASSIGNED_CONTEXT ( ( #56 ) ) GLOBAL_UNIT_ASSIGNED_CONTEXT ( ( #127, #240, #187 ) ) REPRESENTATION_CONTEXT ( 'NONE', 'WORKASPACE' ) );
#196 = ORIENTED_EDGE ( 'NONE', *, *, #171, .T. ) ;
#197 = LOCAL_TIME ( 8, 49, 27.00000000000000000, #141 ) ;
#198 = DIRECTION ( 'NONE',  ( 0.0000000000000000000, 1.000000000000000000, 0.0000000000000000000 ) ) ;
#199 = ADVANCED_FACE ( 'NONE', ( #207, #29 ), #139, .T. ) ;
#200 = DIRECTION ( 'NONE',  ( 2.209076172941777805E-31, -1.000000000000000000, 6.327045624920145811E-17 ) ) ;
#201 = ORIENTED_EDGE ( 'NONE', *, *, #55, .F. ) ;
#202 = PERSON_AND_ORGANIZATION ( #102, #94 ) ;
#203 = FACE_OUTER_BOUND ( 'NONE', #100, .T. ) ;
#204 = DIRECTION ( 'NONE',  ( -3.491481338843133355E-15, 1.224646799147353207E-16, -1.000000000000000000 ) ) ;
#205 = CARTESIAN_POINT ( 'NONE',  ( 1.745740669421566678E-14, 2.249639673992774917E-32, 5.000000000000000000 ) ) ;
#206 = AXIS2_PLACEMENT_3D ( 'NONE', #74, #204, #219 ) ;
#207 = FACE_OUTER_BOUND ( 'NONE', #215, .T. ) ;
#208 = CC_DESIGN_DATE_AND_TIME_ASSIGNMENT ( #8, #183, ( #24 ) ) ;
#209 = APPROVAL_DATE_TIME ( #16, #26 ) ;
#210 = ADVANCED_FACE ( 'NONE', ( #136, #70 ), #41, .T. ) ;
#211 = DIRECTION ( 'NONE',  ( 2.209076172941778243E-31, -1.000000000000000000, 6.327045624920145811E-17 ) ) ;
#212 = VERTEX_POINT ( 'NONE', #36 ) ;
#213 = EDGE_LOOP ( 'NONE', ( #58 ) ) ;
#214 = FACE_OUTER_BOUND ( 'NONE', #175, .T. ) ;
#215 = EDGE_LOOP ( 'NONE', ( #90 ) ) ;
#216 = APPROVAL_DATE_TIME ( #148, #168 ) ;
#217 = SHAPE_DEFINITION_REPRESENTATION ( #35, #163 ) ;
#218 = DIRECTION ( 'NONE',  ( -3.491481338843133355E-15, 1.224646799147353207E-16, -1.000000000000000000 ) ) ;
#219 = DIRECTION ( 'NONE',  ( 4.275831445896958607E-31, 1.000000000000000000, 1.224646799147353207E-16 ) ) ;
#220 = CC_DESIGN_APPROVAL ( #26, ( #89 ) ) ;
#221 = PERSON_AND_ORGANIZATION_ROLE ( 'classification_officer' ) ;
#222 = FACE_OUTER_BOUND ( 'NONE', #152, .T. ) ;
#223 = CARTESIAN_POINT ( 'NONE',  ( 2.304377683636468267E-13, -8.082668874372532400E-15, 66.00000000000000000 ) ) ;
#224 = AXIS2_PLACEMENT_3D ( 'NONE', #120, #1, #189 ) ;
#225 = SPHERICAL_SURFACE ( 'NONE', #170, 1.499999999999999778 ) ;
#226 = ORIENTED_EDGE ( 'NONE', *, *, #144, .F. ) ;
#227 = CALENDAR_DATE ( 2021, 22, 11 ) ;
#228 = EDGE_LOOP ( 'NONE', ( #22 ) ) ;
#229 = CIRCLE ( 'NONE', #145, 1.424999999999998490 ) ;
#230 = ADVANCED_FACE ( 'NONE', ( #203 ), #160, .F. ) ;
#231 = ORIENTED_EDGE ( 'NONE', *, *, #129, .F. ) ;
#232 = CIRCLE ( 'NONE', #114, 2.999999999999993339 ) ;
#233 = DATE_TIME_ROLE ( 'creation_date' ) ;
#234 = FACE_OUTER_BOUND ( 'NONE', #213, .T. ) ;
#235 = CARTESIAN_POINT ( 'NONE',  ( 1.745740669421566678E-14, 2.249639673992774917E-32, 5.000000000000000000 ) ) ;
#236 = CC_DESIGN_APPROVAL ( #168, ( #103 ) ) ;
#237 = DIRECTION ( 'NONE',  ( 0.0000000000000000000, 1.000000000000000000, 0.0000000000000000000 ) ) ;
#238 = DATE_AND_TIME ( #111, #158 ) ;
#239 = FACE_BOUND ( 'NONE', #7, .T. ) ;
#240 =( NAMED_UNIT ( * ) PLANE_ANGLE_UNIT ( ) SI_UNIT ( $, .RADIAN. ) );
#241 = DIRECTION ( 'NONE',  ( 3.491481338843133355E-15, -1.224646799147353207E-16, 1.000000000000000000 ) ) ;
#242 = FACE_OUTER_BOUND ( 'NONE', #228, .T. ) ;
#243 = APPROVAL_STATUS ( 'not_yet_approved' ) ;
ENDSEC;
END-ISO-10303-21;
