ISO-10303-21;
HEADER;
FILE_DESCRIPTION (( 'STEP AP203' ),
    '1' );
FILE_NAME ('61357.step',
    '2021-11-22T07:49:27',
    ( '' ),
    ( '' ),
    'SwSTEP 2.0',
    'SolidWorks 2019',
    '' );
FILE_SCHEMA (( 'CONFIG_CONTROL_DESIGN' ));
ENDSEC;

DATA;
#1 = PRODUCT_RELATED_PRODUCT_CATEGORY ( 'detail', '', ( #193 ) ) ;
#2 = PERSON_AND_ORGANIZATION ( #120, #18 ) ;
#3 = APPROVAL_ROLE ( '' ) ;
#4 = APPROVAL_STATUS ( 'not_yet_approved' ) ;
#5 = ADVANCED_FACE ( 'NONE', ( #217 ), #84, .T. ) ;
#6 = DATE_AND_TIME ( #93, #147 ) ;
#7 = DIRECTION ( 'NONE',  ( -3.491481338843133355E-15, 1.224646799147353207E-16, -1.000000000000000000 ) ) ;
#8 = ORIENTED_EDGE ( 'NONE', *, *, #213, .T. ) ;
#9 = APPROVAL ( #152, 'UNSPECIFIED' ) ;
#10 = EDGE_LOOP ( 'NONE', ( #133 ) ) ;
#11 = AXIS2_PLACEMENT_3D ( 'NONE', #102, #236, #175 ) ;
#12 = ORIENTED_EDGE ( 'NONE', *, *, #209, .T. ) ;
#13 = EDGE_LOOP ( 'NONE', ( #26 ) ) ;
#14 = DIRECTION ( 'NONE',  ( 3.491481338843133355E-15, 6.327045624920145811E-17, 1.000000000000000000 ) ) ;
#15 = FACE_OUTER_BOUND ( 'NONE', #115, .T. ) ;
#16 = DIRECTION ( 'NONE',  ( 3.491481338843133355E-15, 6.327045624920145811E-17, 1.000000000000000000 ) ) ;
#17 = CARTESIAN_POINT ( 'NONE',  ( 1.047444401652940007E-14, 1.898113687476043743E-16, 3.000000000000000000 ) ) ;
#18 = ORGANIZATION ( 'UNSPECIFIED', 'UNSPECIFIED', '' ) ;
#19 = CARTESIAN_POINT ( 'NONE',  ( 0.0000000000000000000, 0.0000000000000000000, 0.0000000000000000000 ) ) ;
#20 = AXIS2_PLACEMENT_3D ( 'NONE', #157, #194, #28 ) ;
#21 = CC_DESIGN_APPROVAL ( #142, ( #73 ) ) ;
#22 = PERSON_AND_ORGANIZATION_ROLE ( 'design_supplier' ) ;
#23 = ADVANCED_FACE ( 'NONE', ( #134, #135 ), #228, .F. ) ;
#24 = CALENDAR_DATE ( 2021, 22, 11 ) ;
#25 = EDGE_LOOP ( 'NONE', ( #231 ) ) ;
#26 = ORIENTED_EDGE ( 'NONE', *, *, #213, .F. ) ;
#27 = ORIENTED_EDGE ( 'NONE', *, *, #113, .T. ) ;
#28 = DIRECTION ( 'NONE',  ( 0.0000000000000000000, -1.000000000000000000, 0.0000000000000000000 ) ) ;
#29 = CARTESIAN_POINT ( 'NONE',  ( 2.304377683636468267E-13, -8.082668874372532400E-15, 66.00000000000000000 ) ) ;
#30 = DIRECTION ( 'NONE',  ( 0.0000000000000000000, -1.000000000000000000, 0.0000000000000000000 ) ) ;
#31 = AXIS2_PLACEMENT_3D ( 'NONE', #233, #46, #47 ) ;
#32 = AXIS2_PLACEMENT_3D ( 'NONE', #17, #14, #30 ) ;
#33 = DIRECTION ( 'NONE',  ( 0.0000000000000000000, 1.000000000000000000, 0.0000000000000000000 ) ) ;
#34 = LOCAL_TIME ( 8, 49, 27.00000000000000000, #39 ) ;
#35 = DIRECTION ( 'NONE',  ( 2.209076172941777805E-31, -1.000000000000000000, 6.327045624920145811E-17 ) ) ;
#36 = DIRECTION ( 'NONE',  ( -4.275831445896958607E-31, -1.000000000000000000, -1.224646799147353207E-16 ) ) ;
#37 = PERSON_AND_ORGANIZATION_ROLE ( 'design_owner' ) ;
#38 = COORDINATED_UNIVERSAL_TIME_OFFSET ( 1, 0, .AHEAD. ) ;
#39 = COORDINATED_UNIVERSAL_TIME_OFFSET ( 1, 0, .AHEAD. ) ;
#40 = DATE_AND_TIME ( #24, #125 ) ;
#41 = EDGE_LOOP ( 'NONE', ( #27 ) ) ;
#42 = MANIFOLD_SOLID_BREP ( 'Corps-Déplacer/Copier1[1]', #151 ) ;
#43 = ORIENTED_EDGE ( 'NONE', *, *, #124, .F. ) ;
#44 = APPROVAL_PERSON_ORGANIZATION ( #243, #9, #92 ) ;
#45 = CARTESIAN_POINT ( 'NONE',  ( 1.047444401652940007E-14, -4.336808689942028090E-16, 3.000000000000000000 ) ) ;
#46 = DIRECTION ( 'NONE',  ( -3.491481338843133355E-15, 1.224646799147353207E-16, -1.000000000000000000 ) ) ;
#47 = DIRECTION ( 'NONE',  ( 4.275831445896958607E-31, 1.000000000000000000, 1.224646799147353207E-16 ) ) ;
#48 = CIRCLE ( 'NONE', #181, 2.999999999999993339 ) ;
#49 = LOCAL_TIME ( 8, 49, 27.00000000000000000, #38 ) ;
#50 = FACE_OUTER_BOUND ( 'NONE', #210, .T. ) ;
#51 = CARTESIAN_POINT ( 'NONE',  ( 1.047444401652940007E-14, -4.336808689942028090E-16, 3.000000000000000000 ) ) ;
#52 = CIRCLE ( 'NONE', #11, 2.499999999999993339 ) ;
#53 = PLANE ( 'NONE',  #211 ) ;
#54 = DIRECTION ( 'NONE',  ( 0.0000000000000000000, -1.000000000000000000, 0.0000000000000000000 ) ) ;
#55 = AXIS2_PLACEMENT_3D ( 'NONE', #45, #81, #155 ) ;
#56 = PERSON_AND_ORGANIZATION_ROLE ( 'classification_officer' ) ;
#57 = CALENDAR_DATE ( 2021, 22, 11 ) ;
#58 = SECURITY_CLASSIFICATION_LEVEL ( 'unclassified' ) ;
#59 = PERSON_AND_ORGANIZATION_ROLE ( 'creator' ) ;
#60 = DIRECTION ( 'NONE',  ( -1.000000000000000000, 0.0000000000000000000, 3.491481338843133355E-15 ) ) ;
#61 = LOCAL_TIME ( 8, 49, 27.00000000000000000, #226 ) ;
#62 = EDGE_LOOP ( 'NONE', ( #173 ) ) ;
#63 = ADVANCED_FACE ( 'NONE', ( #214 ), #235, .F. ) ;
#64 = DIRECTION ( 'NONE',  ( 2.240456136786102420E-31, -1.000000000000000000, 6.327045624920145811E-17 ) ) ;
#65 = CARTESIAN_POINT ( 'NONE',  ( 2.286920276942252663E-13, -8.021436534415164826E-15, 65.50000000000000000 ) ) ;
#66 = DIRECTION ( 'NONE',  ( 3.491481338843133355E-15, -1.224646799147353207E-16, 1.000000000000000000 ) ) ;
#67 = ADVANCED_FACE ( 'NONE', ( #215, #153 ), #123, .T. ) ;
#68 = VERTEX_POINT ( 'NONE', #224 ) ;
#69 = CARTESIAN_POINT ( 'NONE',  ( 0.0000000000000000000, 0.0000000000000000000, 0.0000000000000000000 ) ) ;
#70 = DIRECTION ( 'NONE',  ( -3.491481338843133355E-15, -6.327045624920145811E-17, -1.000000000000000000 ) ) ;
#71 = PERSON_AND_ORGANIZATION ( #120, #18 ) ;
#72 = PERSON_AND_ORGANIZATION ( #120, #18 ) ;
#73 = SECURITY_CLASSIFICATION ( '', '', #58 ) ;
#74 = PERSON_AND_ORGANIZATION ( #120, #18 ) ;
#75 = EDGE_CURVE ( 'NONE', #242, #242, #202, .T. ) ;
#76 = SHAPE_DEFINITION_REPRESENTATION ( #99, #160 ) ;
#77 = DATE_TIME_ROLE ( 'creation_date' ) ;
#78 = CONICAL_SURFACE ( 'NONE', #138, 2.499999999999993339, 0.7853981633974473908 ) ;
#79 = CC_DESIGN_APPROVAL ( #136, ( #87 ) ) ;
#80 = DIRECTION ( 'NONE',  ( -3.491481338843133355E-15, 1.224646799147353207E-16, -1.000000000000000000 ) ) ;
#81 = DIRECTION ( 'NONE',  ( 3.491481338843133355E-15, -1.224646799147353207E-16, 1.000000000000000000 ) ) ;
#82 = CC_DESIGN_PERSON_AND_ORGANIZATION_ASSIGNMENT ( #71, #59, ( #83 ) ) ;
#83 = PRODUCT_DEFINITION_FORMATION_WITH_SPECIFIED_SOURCE ( 'ANY', '', #193, .NOT_KNOWN. ) ;
#84 = SPHERICAL_SURFACE ( 'NONE', #216, 1.000000000000000000 ) ;
#85 = EDGE_LOOP ( 'NONE', ( #172 ) ) ;
#86 = APPROVAL_PERSON_ORGANIZATION ( #72, #142, #166 ) ;
#87 = PRODUCT_DEFINITION ( 'UNKNOWN', '', #83, #94 ) ;
#88 = DIRECTION ( 'NONE',  ( 4.275831445896958607E-31, 1.000000000000000000, 1.224646799147353207E-16 ) ) ;
#89 = CARTESIAN_POINT ( 'NONE',  ( 1.047444401652940007E-14, 1.898113687476043743E-16, 3.000000000000000000 ) ) ;
#90 = CARTESIAN_POINT ( 'NONE',  ( 2.304377683636468267E-13, 1.874699728327305041E-32, 66.00000000000000000 ) ) ;
#91 = PERSON_AND_ORGANIZATION ( #120, #18 ) ;
#92 = APPROVAL_ROLE ( '' ) ;
#93 = CALENDAR_DATE ( 2021, 22, 11 ) ;
#94 = DESIGN_CONTEXT ( 'detailed design', #171, 'design' ) ;
#95 = PERSON_AND_ORGANIZATION_ROLE ( 'creator' ) ;
#96 = EDGE_LOOP ( 'NONE', ( #97 ) ) ;
#97 = ORIENTED_EDGE ( 'NONE', *, *, #234, .F. ) ;
#98 = EDGE_LOOP ( 'NONE', ( #169 ) ) ;
#99 = PRODUCT_DEFINITION_SHAPE ( 'NONE', 'NONE',  #87 ) ;
#100 = AXIS2_PLACEMENT_3D ( 'NONE', #223, #241, #126 ) ;
#101 = CIRCLE ( 'NONE', #237, 0.9249999999999993783 ) ;
#102 = CARTESIAN_POINT ( 'NONE',  ( 2.304377683636468267E-13, -8.082668874372532400E-15, 66.00000000000000000 ) ) ;
#103 = VERTEX_POINT ( 'NONE', #108 ) ;
#104 = CC_DESIGN_DATE_AND_TIME_ASSIGNMENT ( #6, #77, ( #87 ) ) ;
#105 = CIRCLE ( 'NONE', #32, 0.9999999999999993339 ) ;
#106 = DIRECTION ( 'NONE',  ( 0.0000000000000000000, -1.000000000000000000, 0.0000000000000000000 ) ) ;
#107 = PLANE ( 'NONE',  #188 ) ;
#108 = CARTESIAN_POINT ( 'NONE',  ( 2.286920276942252663E-13, 2.999999999999985345, 65.50000000000000000 ) ) ;
#109 = MECHANICAL_CONTEXT ( 'NONE', #218, 'mechanical' ) ;
#110 = CC_DESIGN_PERSON_AND_ORGANIZATION_ASSIGNMENT ( #74, #22, ( #83 ) ) ;
#111 = CLOSED_SHELL ( 'NONE', ( #229, #5, #182 ) ) ;
#112 = COORDINATED_UNIVERSAL_TIME_OFFSET ( 1, 0, .AHEAD. ) ;
#113 = EDGE_CURVE ( 'NONE', #127, #127, #52, .T. ) ;
#114 = ORIENTED_EDGE ( 'NONE', *, *, #234, .T. ) ;
#115 = EDGE_LOOP ( 'NONE', ( #114 ) ) ;
#116 = AXIS2_PLACEMENT_3D ( 'NONE', #163, #16, #106 ) ;
#117 = EDGE_LOOP ( 'NONE', ( #12 ) ) ;
#118 = CC_DESIGN_DATE_AND_TIME_ASSIGNMENT ( #206, #128, ( #73 ) ) ;
#119 = EDGE_LOOP ( 'NONE', ( #208 ) ) ;
#120 = PERSON ( 'UNSPECIFIED', 'UNSPECIFIED', 'UNSPECIFIED', ('UNSPECIFIED'), ('UNSPECIFIED'), ('UNSPECIFIED') ) ;
#121 = DIRECTION ( 'NONE',  ( 0.0000000000000000000, 1.000000000000000000, 0.0000000000000000000 ) ) ;
#122 =( GEOMETRIC_REPRESENTATION_CONTEXT ( 3 ) GLOBAL_UNCERTAINTY_ASSIGNED_CONTEXT ( ( #187 ) ) GLOBAL_UNIT_ASSIGNED_CONTEXT ( ( #176, #158, #139 ) ) REPRESENTATION_CONTEXT ( 'NONE', 'WORKASPACE' ) );
#123 = CYLINDRICAL_SURFACE ( 'NONE', #31, 2.999999999999989786 ) ;
#124 = EDGE_CURVE ( 'NONE', #103, #103, #48, .T. ) ;
#125 = LOCAL_TIME ( 8, 49, 27.00000000000000000, #112 ) ;
#126 = DIRECTION ( 'NONE',  ( 2.209076172941778243E-31, -1.000000000000000000, 6.327045624920145811E-17 ) ) ;
#127 = VERTEX_POINT ( 'NONE', #219 ) ;
#128 = DATE_TIME_ROLE ( 'classification_date' ) ;
#129 = DIRECTION ( 'NONE',  ( 1.000000000000000000, 0.0000000000000000000, 0.0000000000000000000 ) ) ;
#130 = CALENDAR_DATE ( 2021, 22, 11 ) ;
#131 = DIRECTION ( 'NONE',  ( 0.0000000000000000000, 0.0000000000000000000, 1.000000000000000000 ) ) ;
#132 = APPLICATION_PROTOCOL_DEFINITION ( 'international standard', 'config_control_design', 1994, #218 ) ;
#133 = ORIENTED_EDGE ( 'NONE', *, *, #75, .T. ) ;
#134 = FACE_OUTER_BOUND ( 'NONE', #10, .T. ) ;
#135 = FACE_OUTER_BOUND ( 'NONE', #192, .T. ) ;
#136 = APPROVAL ( #4, 'UNSPECIFIED' ) ;
#137 = DIRECTION ( 'NONE',  ( 0.0000000000000000000, 1.000000000000000000, 0.0000000000000000000 ) ) ;
#138 = AXIS2_PLACEMENT_3D ( 'NONE', #29, #80, #141 ) ;
#139 =( NAMED_UNIT ( * ) SI_UNIT ( $, .STERADIAN. ) SOLID_ANGLE_UNIT ( ) );
#140 = CARTESIAN_POINT ( 'NONE',  ( 2.164718430082742365E-14, -0.9249999999999978240, 6.199999999999999289 ) ) ;
#141 = DIRECTION ( 'NONE',  ( 0.0000000000000000000, 1.000000000000000000, 0.0000000000000000000 ) ) ;
#142 = APPROVAL ( #204, 'UNSPECIFIED' ) ;
#143 = VERTEX_POINT ( 'NONE', #197 ) ;
#144 = CARTESIAN_POINT ( 'NONE',  ( 1.047444401652940007E-14, -0.9249999999999991562, 3.000000000000000000 ) ) ;
#145 = PERSON_AND_ORGANIZATION ( #120, #18 ) ;
#146 = CIRCLE ( 'NONE', #116, 0.9999999999999997780 ) ;
#147 = LOCAL_TIME ( 8, 49, 27.00000000000000000, #167 ) ;
#148 = APPROVAL_DATE_TIME ( #230, #9 ) ;
#149 = APPLICATION_PROTOCOL_DEFINITION ( 'international standard', 'config_control_design', 1994, #171 ) ;
#150 = CC_DESIGN_PERSON_AND_ORGANIZATION_ASSIGNMENT ( #165, #37, ( #193 ) ) ;
#151 = CLOSED_SHELL ( 'NONE', ( #67, #164, #191, #23, #170, #63 ) ) ;
#152 = APPROVAL_STATUS ( 'not_yet_approved' ) ;
#153 = FACE_OUTER_BOUND ( 'NONE', #13, .T. ) ;
#154 = ORIENTED_EDGE ( 'NONE', *, *, #124, .T. ) ;
#155 = DIRECTION ( 'NONE',  ( -4.275831445896958607E-31, -1.000000000000000000, -1.224646799147353207E-16 ) ) ;
#156 = CARTESIAN_POINT ( 'NONE',  ( 2.164718430082743311E-14, 0.0000000000000000000, 6.200000000000001954 ) ) ;
#157 = CARTESIAN_POINT ( 'NONE',  ( 2.164718430082742365E-14, 3.922768287450489762E-16, 6.199999999999999289 ) ) ;
#158 =( NAMED_UNIT ( * ) PLANE_ANGLE_UNIT ( ) SI_UNIT ( $, .RADIAN. ) );
#159 = CC_DESIGN_SECURITY_CLASSIFICATION ( #73, ( #83 ) ) ;
#160 = ADVANCED_BREP_SHAPE_REPRESENTATION ( '61357', ( #42, #203, #198 ), #122 ) ;
#161 = CYLINDRICAL_SURFACE ( 'NONE', #100, 0.9249999999999988232 ) ;
#162 = DIRECTION ( 'NONE',  ( 3.491481338843133355E-15, 6.327045624920145811E-17, 1.000000000000000000 ) ) ;
#163 = CARTESIAN_POINT ( 'NONE',  ( 3.491481338843134144E-15, 6.327045624920147043E-17, 1.000000000000000222 ) ) ;
#164 = ADVANCED_FACE ( 'NONE', ( #50, #195 ), #78, .T. ) ;
#165 = PERSON_AND_ORGANIZATION ( #120, #18 ) ;
#166 = APPROVAL_ROLE ( '' ) ;
#167 = COORDINATED_UNIVERSAL_TIME_OFFSET ( 1, 0, .AHEAD. ) ;
#168 = CIRCLE ( 'NONE', #207, 2.999999999999989786 ) ;
#169 = ORIENTED_EDGE ( 'NONE', *, *, #222, .F. ) ;
#170 = ADVANCED_FACE ( 'NONE', ( #180, #199 ), #161, .T. ) ;
#171 = APPLICATION_CONTEXT ( 'configuration controlled 3d designs of mechanical parts and assemblies' ) ;
#172 = ORIENTED_EDGE ( 'NONE', *, *, #209, .F. ) ;
#173 = ORIENTED_EDGE ( 'NONE', *, *, #75, .F. ) ;
#174 = CC_DESIGN_PERSON_AND_ORGANIZATION_ASSIGNMENT ( #145, #56, ( #73 ) ) ;
#175 = DIRECTION ( 'NONE',  ( 0.0000000000000000000, 1.000000000000000000, 0.0000000000000000000 ) ) ;
#176 =( LENGTH_UNIT ( ) NAMED_UNIT ( * ) SI_UNIT ( .MILLI., .METRE. ) );
#177 = CARTESIAN_POINT ( 'NONE',  ( 4.041511441619565094E-14, 3.401007727126866655E-16, 11.57534882589026992 ) ) ;
#178 = FACE_OUTER_BOUND ( 'NONE', #117, .T. ) ;
#179 = DIRECTION ( 'NONE',  ( -3.491481338843133355E-15, 1.224646799147353207E-16, -1.000000000000000000 ) ) ;
#180 = FACE_OUTER_BOUND ( 'NONE', #25, .T. ) ;
#181 = AXIS2_PLACEMENT_3D ( 'NONE', #65, #7, #137 ) ;
#182 = ADVANCED_FACE ( 'NONE', ( #178, #201 ), #196, .T. ) ;
#183 = AXIS2_PLACEMENT_3D ( 'NONE', #156, #212, #64 ) ;
#184 = APPROVAL_DATE_TIME ( #205, #142 ) ;
#185 = APPROVAL_PERSON_ORGANIZATION ( #91, #136, #3 ) ;
#186 = APPROVAL_DATE_TIME ( #40, #136 ) ;
#187 = UNCERTAINTY_MEASURE_WITH_UNIT (LENGTH_MEASURE( 1.000000000000000082E-05 ), #176, 'distance_accuracy_value', 'NONE');
#188 = AXIS2_PLACEMENT_3D ( 'NONE', #90, #179, #88 ) ;
#189 = EDGE_LOOP ( 'NONE', ( #154 ) ) ;
#190 = CARTESIAN_POINT ( 'NONE',  ( 3.491481338843133355E-15, -3.393051144118362322E-16, 1.000000000000000000 ) ) ;
#191 = ADVANCED_FACE ( 'NONE', ( #200 ), #107, .F. ) ;
#192 = EDGE_LOOP ( 'NONE', ( #8 ) ) ;
#193 = PRODUCT ( '61357', '61357', '', ( #109 ) ) ;
#194 = DIRECTION ( 'NONE',  ( 3.491481338843133355E-15, 6.327045624920145811E-17, 1.000000000000000000 ) ) ;
#195 = FACE_BOUND ( 'NONE', #41, .T. ) ;
#196 = CYLINDRICAL_SURFACE ( 'NONE', #225, 0.9999999999999995559 ) ;
#197 = CARTESIAN_POINT ( 'NONE',  ( 3.491481338843134144E-15, -0.9999999999999997780, 1.000000000000000222 ) ) ;
#198 = AXIS2_PLACEMENT_3D ( 'NONE', #19, #131, #129 ) ;
#199 = FACE_OUTER_BOUND ( 'NONE', #62, .T. ) ;
#200 = FACE_OUTER_BOUND ( 'NONE', #119, .T. ) ;
#201 = FACE_OUTER_BOUND ( 'NONE', #96, .T. ) ;
#202 = CIRCLE ( 'NONE', #20, 0.9249999999999982681 ) ;
#203 = MANIFOLD_SOLID_BREP ( 'Corps-Déplacer/Copier1[2]', #111 ) ;
#204 = APPROVAL_STATUS ( 'not_yet_approved' ) ;
#205 = DATE_AND_TIME ( #57, #49 ) ;
#206 = DATE_AND_TIME ( #130, #61 ) ;
#207 = AXIS2_PLACEMENT_3D ( 'NONE', #177, #70, #33 ) ;
#208 = ORIENTED_EDGE ( 'NONE', *, *, #113, .F. ) ;
#209 = EDGE_CURVE ( 'NONE', #143, #143, #146, .T. ) ;
#210 = EDGE_LOOP ( 'NONE', ( #43 ) ) ;
#211 = AXIS2_PLACEMENT_3D ( 'NONE', #51, #66, #36 ) ;
#212 = DIRECTION ( 'NONE',  ( 3.491481338843133355E-15, 6.327045624920145811E-17, 1.000000000000000000 ) ) ;
#213 = EDGE_CURVE ( 'NONE', #239, #239, #168, .T. ) ;
#214 = FACE_OUTER_BOUND ( 'NONE', #98, .T. ) ;
#215 = FACE_OUTER_BOUND ( 'NONE', #189, .T. ) ;
#216 = AXIS2_PLACEMENT_3D ( 'NONE', #190, #60, #121 ) ;
#217 = FACE_OUTER_BOUND ( 'NONE', #85, .T. ) ;
#218 = APPLICATION_CONTEXT ( 'configuration controlled 3d designs of mechanical parts and assemblies' ) ;
#219 = CARTESIAN_POINT ( 'NONE',  ( 2.304377683636468267E-13, 2.499999999999985345, 66.00000000000000000 ) ) ;
#220 = VERTEX_POINT ( 'NONE', #144 ) ;
#221 = CARTESIAN_POINT ( 'NONE',  ( 4.041511441619565094E-14, 2.999999999999990230, 11.57534882589026992 ) ) ;
#222 = EDGE_CURVE ( 'NONE', #220, #220, #101, .T. ) ;
#223 = CARTESIAN_POINT ( 'NONE',  ( 0.0000000000000000000, 0.0000000000000000000, 0.0000000000000000000 ) ) ;
#224 = CARTESIAN_POINT ( 'NONE',  ( 1.047444401652940007E-14, -0.9999999999999991118, 3.000000000000000000 ) ) ;
#225 = AXIS2_PLACEMENT_3D ( 'NONE', #69, #238, #35 ) ;
#226 = COORDINATED_UNIVERSAL_TIME_OFFSET ( 1, 0, .AHEAD. ) ;
#227 = CALENDAR_DATE ( 2021, 22, 11 ) ;
#228 = TOROIDAL_SURFACE ( 'NONE', #183, 8.924999999999998934, 8.000000000000000000 ) ;
#229 = ADVANCED_FACE ( 'NONE', ( #15 ), #53, .T. ) ;
#230 = DATE_AND_TIME ( #227, #34 ) ;
#231 = ORIENTED_EDGE ( 'NONE', *, *, #222, .T. ) ;
#232 = CC_DESIGN_APPROVAL ( #9, ( #83 ) ) ;
#233 = CARTESIAN_POINT ( 'NONE',  ( 0.0000000000000000000, 0.0000000000000000000, 0.0000000000000000000 ) ) ;
#234 = EDGE_CURVE ( 'NONE', #68, #68, #105, .T. ) ;
#235 = PLANE ( 'NONE',  #55 ) ;
#236 = DIRECTION ( 'NONE',  ( -3.491481338843133355E-15, 1.224646799147353207E-16, -1.000000000000000000 ) ) ;
#237 = AXIS2_PLACEMENT_3D ( 'NONE', #89, #162, #54 ) ;
#238 = DIRECTION ( 'NONE',  ( 3.491481338843133355E-15, 6.327045624920145811E-17, 1.000000000000000000 ) ) ;
#239 = VERTEX_POINT ( 'NONE', #221 ) ;
#240 = CC_DESIGN_PERSON_AND_ORGANIZATION_ASSIGNMENT ( #2, #95, ( #87 ) ) ;
#241 = DIRECTION ( 'NONE',  ( 3.491481338843133355E-15, 6.327045624920145811E-17, 1.000000000000000000 ) ) ;
#242 = VERTEX_POINT ( 'NONE', #140 ) ;
#243 = PERSON_AND_ORGANIZATION ( #120, #18 ) ;
ENDSEC;
END-ISO-10303-21;
