ISO-10303-21;
HEADER;
FILE_DESCRIPTION (( 'STEP AP203' ),
    '1' );
FILE_NAME ('61356.step',
    '2021-11-22T07:49:27',
    ( '' ),
    ( '' ),
    'SwSTEP 2.0',
    'SolidWorks 2019',
    '' );
FILE_SCHEMA (( 'CONFIG_CONTROL_DESIGN' ));
ENDSEC;

DATA;
#1 = EDGE_LOOP ( 'NONE', ( #17 ) ) ;
#2 = DIRECTION ( 'NONE',  ( -3.491481338843133355E-15, 1.224646799147353207E-16, -1.000000000000000000 ) ) ;
#3 = CARTESIAN_POINT ( 'NONE',  ( 0.0000000000000000000, 0.0000000000000000000, 0.0000000000000000000 ) ) ;
#4 = CYLINDRICAL_SURFACE ( 'NONE', #29, 2.999999999999989786 ) ;
#5 = APPROVAL_ROLE ( '' ) ;
#6 = PLANE ( 'NONE',  #83 ) ;
#7 = DIRECTION ( 'NONE',  ( 3.491481338843133355E-15, -1.224646799147353207E-16, 1.000000000000000000 ) ) ;
#8 = PERSON_AND_ORGANIZATION ( #173, #125 ) ;
#9 = LOCAL_TIME ( 8, 49, 27.00000000000000000, #25 ) ;
#10 = CC_DESIGN_DATE_AND_TIME_ASSIGNMENT ( #123, #47, ( #81 ) ) ;
#11 = CARTESIAN_POINT ( 'NONE',  ( 2.618611004132350016E-15, -0.7499999999999997780, 0.7500000000000000000 ) ) ;
#12 = EDGE_CURVE ( 'NONE', #43, #43, #69, .T. ) ;
#13 = FACE_OUTER_BOUND ( 'NONE', #58, .T. ) ;
#14 = FACE_OUTER_BOUND ( 'NONE', #213, .T. ) ;
#15 = VERTEX_POINT ( 'NONE', #11 ) ;
#16 = ADVANCED_FACE ( 'NONE', ( #135, #13 ), #167, .T. ) ;
#17 = ORIENTED_EDGE ( 'NONE', *, *, #12, .F. ) ;
#18 = CARTESIAN_POINT ( 'NONE',  ( 0.0000000000000000000, 0.0000000000000000000, 0.0000000000000000000 ) ) ;
#19 = DATE_AND_TIME ( #66, #23 ) ;
#20 = LOCAL_TIME ( 8, 49, 27.00000000000000000, #214 ) ;
#21 = PERSON_AND_ORGANIZATION_ROLE ( 'creator' ) ;
#22 = DIRECTION ( 'NONE',  ( -4.275831445896958607E-31, -1.000000000000000000, -1.224646799147353207E-16 ) ) ;
#23 = LOCAL_TIME ( 8, 49, 27.00000000000000000, #216 ) ;
#24 = CC_DESIGN_PERSON_AND_ORGANIZATION_ASSIGNMENT ( #42, #21, ( #39 ) ) ;
#25 = COORDINATED_UNIVERSAL_TIME_OFFSET ( 1, 0, .AHEAD. ) ;
#26 = AXIS2_PLACEMENT_3D ( 'NONE', #49, #241, #53 ) ;
#27 = CARTESIAN_POINT ( 'NONE',  ( 1.047444401652939691E-14, -0.7499999999999991118, 2.999999999999999112 ) ) ;
#28 = COORDINATED_UNIVERSAL_TIME_OFFSET ( 1, 0, .AHEAD. ) ;
#29 = AXIS2_PLACEMENT_3D ( 'NONE', #18, #2, #92 ) ;
#30 = DIRECTION ( 'NONE',  ( 0.0000000000000000000, 1.000000000000000000, 0.0000000000000000000 ) ) ;
#31 = CARTESIAN_POINT ( 'NONE',  ( 1.047444401652939691E-14, 1.898113687476043250E-16, 2.999999999999999112 ) ) ;
#32 = CARTESIAN_POINT ( 'NONE',  ( 2.286920276942252663E-13, -8.021436534415164826E-15, 65.50000000000000000 ) ) ;
#33 = DIRECTION ( 'NONE',  ( 2.209076172941777805E-31, -1.000000000000000000, 6.327045624920144578E-17 ) ) ;
#34 = CONICAL_SURFACE ( 'NONE', #145, 2.499999999999993339, 0.7853981633974473908 ) ;
#35 = ADVANCED_FACE ( 'NONE', ( #54 ), #242, .T. ) ;
#36 = CARTESIAN_POINT ( 'NONE',  ( 1.047444401652940007E-14, -4.336808689942028090E-16, 3.000000000000000000 ) ) ;
#37 = MECHANICAL_CONTEXT ( 'NONE', #177, 'mechanical' ) ;
#38 = FACE_OUTER_BOUND ( 'NONE', #1, .T. ) ;
#39 = PRODUCT_DEFINITION_FORMATION_WITH_SPECIFIED_SOURCE ( 'ANY', '', #137, .NOT_KNOWN. ) ;
#40 = ADVANCED_FACE ( 'NONE', ( #126, #74 ), #211, .F. ) ;
#41 = APPROVAL_DATE_TIME ( #192, #63 ) ;
#42 = PERSON_AND_ORGANIZATION ( #173, #125 ) ;
#43 = VERTEX_POINT ( 'NONE', #163 ) ;
#44 = APPROVAL_PERSON_ORGANIZATION ( #94, #63, #5 ) ;
#45 = CC_DESIGN_APPROVAL ( #164, ( #81 ) ) ;
#46 = APPROVAL_STATUS ( 'not_yet_approved' ) ;
#47 = DATE_TIME_ROLE ( 'classification_date' ) ;
#48 = CIRCLE ( 'NONE', #93, 2.499999999999993339 ) ;
#49 = CARTESIAN_POINT ( 'NONE',  ( 1.640996229256272677E-14, 2.973711443712468260E-16, 4.699999999999999289 ) ) ;
#50 = ORIENTED_EDGE ( 'NONE', *, *, #52, .F. ) ;
#51 = CARTESIAN_POINT ( 'NONE',  ( 0.0000000000000000000, 0.0000000000000000000, 0.0000000000000000000 ) ) ;
#52 = EDGE_CURVE ( 'NONE', #184, #184, #132, .T. ) ;
#53 = DIRECTION ( 'NONE',  ( 0.0000000000000000000, -1.000000000000000000, 0.0000000000000000000 ) ) ;
#54 = FACE_OUTER_BOUND ( 'NONE', #226, .T. ) ;
#55 = AXIS2_PLACEMENT_3D ( 'NONE', #203, #154, #139 ) ;
#56 = FACE_OUTER_BOUND ( 'NONE', #224, .T. ) ;
#57 = MANIFOLD_SOLID_BREP ( 'Corps-Déplacer/Copier1[2]', #158 ) ;
#58 = EDGE_LOOP ( 'NONE', ( #162 ) ) ;
#59 = MANIFOLD_SOLID_BREP ( 'Corps-Déplacer/Copier1[1]', #152 ) ;
#60 = CC_DESIGN_PERSON_AND_ORGANIZATION_ASSIGNMENT ( #8, #144, ( #81 ) ) ;
#61 = PRODUCT_DEFINITION_SHAPE ( 'NONE', 'NONE',  #103 ) ;
#62 = CIRCLE ( 'NONE', #121, 0.7499999999999997780 ) ;
#63 = APPROVAL ( #141, 'UNSPECIFIED' ) ;
#64 = APPLICATION_PROTOCOL_DEFINITION ( 'international standard', 'config_control_design', 1994, #177 ) ;
#65 = CIRCLE ( 'NONE', #218, 2.999999999999989786 ) ;
#66 = CALENDAR_DATE ( 2021, 22, 11 ) ;
#67 = VERTEX_POINT ( 'NONE', #202 ) ;
#68 = CALENDAR_DATE ( 2021, 22, 11 ) ;
#69 = CIRCLE ( 'NONE', #194, 0.6999999999999992895 ) ;
#70 = PRODUCT_RELATED_PRODUCT_CATEGORY ( 'detail', '', ( #137 ) ) ;
#71 = CARTESIAN_POINT ( 'NONE',  ( 1.640996229256272677E-14, -0.6999999999999986233, 4.699999999999999289 ) ) ;
#72 = LOCAL_TIME ( 8, 49, 27.00000000000000000, #28 ) ;
#73 = ORIENTED_EDGE ( 'NONE', *, *, #113, .T. ) ;
#74 = FACE_OUTER_BOUND ( 'NONE', #130, .T. ) ;
#75 = DIRECTION ( 'NONE',  ( -1.000000000000000000, 0.0000000000000000000, 3.491481338843133355E-15 ) ) ;
#76 = EDGE_LOOP ( 'NONE', ( #153 ) ) ;
#77 = DIRECTION ( 'NONE',  ( -3.491481338843133355E-15, 1.224646799147353207E-16, -1.000000000000000000 ) ) ;
#78 = DIRECTION ( 'NONE',  ( 3.491481338843133355E-15, -1.224646799147353207E-16, 1.000000000000000000 ) ) ;
#79 = DIRECTION ( 'NONE',  ( 1.000000000000000000, 0.0000000000000000000, 0.0000000000000000000 ) ) ;
#80 = CARTESIAN_POINT ( 'NONE',  ( 2.618611004132350016E-15, 4.745284218690109358E-17, 0.7500000000000000000 ) ) ;
#81 = SECURITY_CLASSIFICATION ( '', '', #176 ) ;
#82 = ADVANCED_FACE ( 'NONE', ( #38 ), #6, .F. ) ;
#83 = AXIS2_PLACEMENT_3D ( 'NONE', #172, #7, #22 ) ;
#84 = VERTEX_POINT ( 'NONE', #89 ) ;
#85 = AXIS2_PLACEMENT_3D ( 'NONE', #227, #107, #100 ) ;
#86 = UNCERTAINTY_MEASURE_WITH_UNIT (LENGTH_MEASURE( 1.000000000000000082E-05 ), #101, 'distance_accuracy_value', 'NONE');
#87 = COORDINATED_UNIVERSAL_TIME_OFFSET ( 1, 0, .AHEAD. ) ;
#88 = ORIENTED_EDGE ( 'NONE', *, *, #196, .T. ) ;
#89 = CARTESIAN_POINT ( 'NONE',  ( 2.286920276942252663E-13, 2.999999999999985345, 65.50000000000000000 ) ) ;
#90 = EDGE_LOOP ( 'NONE', ( #168 ) ) ;
#91 = VERTEX_POINT ( 'NONE', #236 ) ;
#92 = DIRECTION ( 'NONE',  ( 4.275831445896958607E-31, 1.000000000000000000, 1.224646799147353207E-16 ) ) ;
#93 = AXIS2_PLACEMENT_3D ( 'NONE', #112, #190, #193 ) ;
#94 = PERSON_AND_ORGANIZATION ( #173, #125 ) ;
#95 = FACE_OUTER_BOUND ( 'NONE', #76, .T. ) ;
#96 = FACE_OUTER_BOUND ( 'NONE', #170, .T. ) ;
#97 = EDGE_CURVE ( 'NONE', #15, #15, #62, .T. ) ;
#98 = PERSON_AND_ORGANIZATION_ROLE ( 'design_supplier' ) ;
#99 = CC_DESIGN_APPROVAL ( #63, ( #103 ) ) ;
#100 = DIRECTION ( 'NONE',  ( 4.275831445896958607E-31, 1.000000000000000000, 1.224646799147353207E-16 ) ) ;
#101 =( LENGTH_UNIT ( ) NAMED_UNIT ( * ) SI_UNIT ( .MILLI., .METRE. ) );
#102 = SHAPE_DEFINITION_REPRESENTATION ( #61, #206 ) ;
#103 = PRODUCT_DEFINITION ( 'UNKNOWN', '', #39, #220 ) ;
#104 = PERSON_AND_ORGANIZATION ( #173, #125 ) ;
#105 = AXIS2_PLACEMENT_3D ( 'NONE', #148, #187, #150 ) ;
#106 = SPHERICAL_SURFACE ( 'NONE', #174, 0.7499999999999998890 ) ;
#107 = DIRECTION ( 'NONE',  ( -3.491481338843133355E-15, 1.224646799147353207E-16, -1.000000000000000000 ) ) ;
#108 = APPROVAL_PERSON_ORGANIZATION ( #104, #164, #182 ) ;
#109 = ORIENTED_EDGE ( 'NONE', *, *, #200, .T. ) ;
#110 = CC_DESIGN_DATE_AND_TIME_ASSIGNMENT ( #119, #136, ( #103 ) ) ;
#111 = EDGE_LOOP ( 'NONE', ( #88 ) ) ;
#112 = CARTESIAN_POINT ( 'NONE',  ( 2.304377683636468267E-13, -8.082668874372532400E-15, 66.00000000000000000 ) ) ;
#113 = EDGE_CURVE ( 'NONE', #91, #91, #48, .T. ) ;
#114 = DIRECTION ( 'NONE',  ( 3.491481338843133355E-15, 6.327045624920145811E-17, 1.000000000000000000 ) ) ;
#115 = CALENDAR_DATE ( 2021, 22, 11 ) ;
#116 = PERSON_AND_ORGANIZATION ( #173, #125 ) ;
#117 = EDGE_LOOP ( 'NONE', ( #147 ) ) ;
#118 = AXIS2_PLACEMENT_3D ( 'NONE', #51, #129, #79 ) ;
#119 = DATE_AND_TIME ( #233, #9 ) ;
#120 = PERSON_AND_ORGANIZATION ( #173, #125 ) ;
#121 = AXIS2_PLACEMENT_3D ( 'NONE', #80, #156, #232 ) ;
#122 = FACE_OUTER_BOUND ( 'NONE', #117, .T. ) ;
#123 = DATE_AND_TIME ( #68, #72 ) ;
#124 = ADVANCED_FACE ( 'NONE', ( #96, #95 ), #4, .T. ) ;
#125 = ORGANIZATION ( 'UNSPECIFIED', 'UNSPECIFIED', '' ) ;
#126 = FACE_OUTER_BOUND ( 'NONE', #111, .T. ) ;
#127 = CARTESIAN_POINT ( 'NONE',  ( 3.600896291793451598E-14, 3.551609163136845134E-16, 10.31337688027446653 ) ) ;
#128 = ORIENTED_EDGE ( 'NONE', *, *, #97, .F. ) ;
#129 = DIRECTION ( 'NONE',  ( 0.0000000000000000000, 0.0000000000000000000, 1.000000000000000000 ) ) ;
#130 = EDGE_LOOP ( 'NONE', ( #109 ) ) ;
#131 = FACE_OUTER_BOUND ( 'NONE', #189, .T. ) ;
#132 = CIRCLE ( 'NONE', #55, 0.7499999999999993339 ) ;
#133 = ORIENTED_EDGE ( 'NONE', *, *, #52, .T. ) ;
#134 = DIRECTION ( 'NONE',  ( 0.0000000000000000000, 1.000000000000000000, 0.0000000000000000000 ) ) ;
#135 = FACE_OUTER_BOUND ( 'NONE', #238, .T. ) ;
#136 = DATE_TIME_ROLE ( 'creation_date' ) ;
#137 = PRODUCT ( '61356', '61356', '', ( #37 ) ) ;
#138 = AXIS2_PLACEMENT_3D ( 'NONE', #36, #78, #221 ) ;
#139 = DIRECTION ( 'NONE',  ( 0.0000000000000000000, -1.000000000000000000, 0.0000000000000000000 ) ) ;
#140 = AXIS2_PLACEMENT_3D ( 'NONE', #3, #208, #33 ) ;
#141 = APPROVAL_STATUS ( 'not_yet_approved' ) ;
#142 = APPROVAL_DATE_TIME ( #235, #164 ) ;
#143 = ADVANCED_FACE ( 'NONE', ( #169, #185 ), #34, .T. ) ;
#144 = PERSON_AND_ORGANIZATION_ROLE ( 'classification_officer' ) ;
#145 = AXIS2_PLACEMENT_3D ( 'NONE', #243, #204, #30 ) ;
#146 = CC_DESIGN_SECURITY_CLASSIFICATION ( #81, ( #39 ) ) ;
#147 = ORIENTED_EDGE ( 'NONE', *, *, #113, .F. ) ;
#148 = CARTESIAN_POINT ( 'NONE',  ( 1.640996229256273308E-14, 0.0000000000000000000, 4.700000000000001954 ) ) ;
#149 = CC_DESIGN_PERSON_AND_ORGANIZATION_ASSIGNMENT ( #231, #157, ( #137 ) ) ;
#150 = DIRECTION ( 'NONE',  ( 2.240878920730112754E-31, -1.000000000000000000, 6.327045624920145811E-17 ) ) ;
#151 = CARTESIAN_POINT ( 'NONE',  ( 0.0000000000000000000, 0.0000000000000000000, 0.0000000000000000000 ) ) ;
#152 = CLOSED_SHELL ( 'NONE', ( #124, #143, #166, #40, #16, #82 ) ) ;
#153 = ORIENTED_EDGE ( 'NONE', *, *, #200, .F. ) ;
#154 = DIRECTION ( 'NONE',  ( 3.491481338843133355E-15, 6.327045624920145811E-17, 1.000000000000000000 ) ) ;
#155 = AXIS2_PLACEMENT_3D ( 'NONE', #151, #159, #207 ) ;
#156 = DIRECTION ( 'NONE',  ( 3.491481338843133355E-15, 6.327045624920145811E-17, 1.000000000000000000 ) ) ;
#157 = PERSON_AND_ORGANIZATION_ROLE ( 'design_owner' ) ;
#158 = CLOSED_SHELL ( 'NONE', ( #35, #175, #230 ) ) ;
#159 = DIRECTION ( 'NONE',  ( 3.491481338843133355E-15, 6.327045624920145811E-17, 1.000000000000000000 ) ) ;
#160 = PERSON_AND_ORGANIZATION ( #173, #125 ) ;
#161 = PLANE ( 'NONE',  #85 ) ;
#162 = ORIENTED_EDGE ( 'NONE', *, *, #196, .F. ) ;
#163 = CARTESIAN_POINT ( 'NONE',  ( 1.047444401652939691E-14, -0.6999999999999991784, 2.999999999999999112 ) ) ;
#164 = APPROVAL ( #46, 'UNSPECIFIED' ) ;
#165 = DIRECTION ( 'NONE',  ( 0.0000000000000000000, -1.000000000000000000, 0.0000000000000000000 ) ) ;
#166 = ADVANCED_FACE ( 'NONE', ( #122 ), #161, .F. ) ;
#167 = CYLINDRICAL_SURFACE ( 'NONE', #140, 0.6999999999999991784 ) ;
#168 = ORIENTED_EDGE ( 'NONE', *, *, #212, .F. ) ;
#169 = FACE_OUTER_BOUND ( 'NONE', #90, .T. ) ;
#170 = EDGE_LOOP ( 'NONE', ( #229 ) ) ;
#171 = APPROVAL_ROLE ( '' ) ;
#172 = CARTESIAN_POINT ( 'NONE',  ( 1.047444401652940007E-14, -4.336808689942028090E-16, 3.000000000000000000 ) ) ;
#173 = PERSON ( 'UNSPECIFIED', 'UNSPECIFIED', 'UNSPECIFIED', ('UNSPECIFIED'), ('UNSPECIFIED'), ('UNSPECIFIED') ) ;
#174 = AXIS2_PLACEMENT_3D ( 'NONE', #222, #75, #199 ) ;
#175 = ADVANCED_FACE ( 'NONE', ( #56 ), #106, .T. ) ;
#176 = SECURITY_CLASSIFICATION_LEVEL ( 'unclassified' ) ;
#177 = APPLICATION_CONTEXT ( 'configuration controlled 3d designs of mechanical parts and assemblies' ) ;
#178 = CC_DESIGN_APPROVAL ( #237, ( #39 ) ) ;
#179 = VERTEX_POINT ( 'NONE', #71 ) ;
#180 =( NAMED_UNIT ( * ) PLANE_ANGLE_UNIT ( ) SI_UNIT ( $, .RADIAN. ) );
#181 = CALENDAR_DATE ( 2021, 22, 11 ) ;
#182 = APPROVAL_ROLE ( '' ) ;
#183 = ORIENTED_EDGE ( 'NONE', *, *, #12, .T. ) ;
#184 = VERTEX_POINT ( 'NONE', #27 ) ;
#185 = FACE_BOUND ( 'NONE', #223, .T. ) ;
#186 = APPROVAL_PERSON_ORGANIZATION ( #116, #237, #171 ) ;
#187 = DIRECTION ( 'NONE',  ( 3.491481338843133355E-15, 6.327045624920145811E-17, 1.000000000000000000 ) ) ;
#188 = DIRECTION ( 'NONE',  ( 0.0000000000000000000, 1.000000000000000000, 0.0000000000000000000 ) ) ;
#189 = EDGE_LOOP ( 'NONE', ( #240 ) ) ;
#190 = DIRECTION ( 'NONE',  ( -3.491481338843133355E-15, 1.224646799147353207E-16, -1.000000000000000000 ) ) ;
#191 = CC_DESIGN_PERSON_AND_ORGANIZATION_ASSIGNMENT ( #120, #98, ( #39 ) ) ;
#192 = DATE_AND_TIME ( #115, #20 ) ;
#193 = DIRECTION ( 'NONE',  ( 0.0000000000000000000, 1.000000000000000000, 0.0000000000000000000 ) ) ;
#194 = AXIS2_PLACEMENT_3D ( 'NONE', #31, #114, #165 ) ;
#195 = APPROVAL_DATE_TIME ( #19, #237 ) ;
#196 = EDGE_CURVE ( 'NONE', #179, #179, #197, .T. ) ;
#197 = CIRCLE ( 'NONE', #26, 0.6999999999999989564 ) ;
#198 =( GEOMETRIC_REPRESENTATION_CONTEXT ( 3 ) GLOBAL_UNCERTAINTY_ASSIGNED_CONTEXT ( ( #86 ) ) GLOBAL_UNIT_ASSIGNED_CONTEXT ( ( #101, #180, #201 ) ) REPRESENTATION_CONTEXT ( 'NONE', 'WORKASPACE' ) );
#199 = DIRECTION ( 'NONE',  ( 0.0000000000000000000, 1.000000000000000000, 0.0000000000000000000 ) ) ;
#200 = EDGE_CURVE ( 'NONE', #67, #67, #65, .T. ) ;
#201 =( NAMED_UNIT ( * ) SI_UNIT ( $, .STERADIAN. ) SOLID_ANGLE_UNIT ( ) );
#202 = CARTESIAN_POINT ( 'NONE',  ( 3.600896291793451598E-14, 2.999999999999990230, 10.31337688027446653 ) ) ;
#203 = CARTESIAN_POINT ( 'NONE',  ( 1.047444401652939691E-14, 1.898113687476043250E-16, 2.999999999999999112 ) ) ;
#204 = DIRECTION ( 'NONE',  ( -3.491481338843133355E-15, 1.224646799147353207E-16, -1.000000000000000000 ) ) ;
#205 = LOCAL_TIME ( 8, 49, 27.00000000000000000, #87 ) ;
#206 = ADVANCED_BREP_SHAPE_REPRESENTATION ( '61356', ( #59, #57, #118 ), #198 ) ;
#207 = DIRECTION ( 'NONE',  ( 2.209076172941777805E-31, -1.000000000000000000, 6.327045624920145811E-17 ) ) ;
#208 = DIRECTION ( 'NONE',  ( 3.491481338843133355E-15, 6.327045624920145811E-17, 1.000000000000000000 ) ) ;
#209 = APPROVAL_STATUS ( 'not_yet_approved' ) ;
#210 = APPLICATION_PROTOCOL_DEFINITION ( 'international standard', 'config_control_design', 1994, #225 ) ;
#211 = TOROIDAL_SURFACE ( 'NONE', #105, 8.699999999999999289, 8.000000000000000000 ) ;
#212 = EDGE_CURVE ( 'NONE', #84, #84, #228, .T. ) ;
#213 = EDGE_LOOP ( 'NONE', ( #50 ) ) ;
#214 = COORDINATED_UNIVERSAL_TIME_OFFSET ( 1, 0, .AHEAD. ) ;
#215 = AXIS2_PLACEMENT_3D ( 'NONE', #32, #77, #134 ) ;
#216 = COORDINATED_UNIVERSAL_TIME_OFFSET ( 1, 0, .AHEAD. ) ;
#217 = CYLINDRICAL_SURFACE ( 'NONE', #155, 0.7499999999999995559 ) ;
#218 = AXIS2_PLACEMENT_3D ( 'NONE', #127, #239, #188 ) ;
#219 = CC_DESIGN_PERSON_AND_ORGANIZATION_ASSIGNMENT ( #160, #234, ( #103 ) ) ;
#220 = DESIGN_CONTEXT ( 'detailed design', #225, 'design' ) ;
#221 = DIRECTION ( 'NONE',  ( -4.275831445896958607E-31, -1.000000000000000000, -1.224646799147353207E-16 ) ) ;
#222 = CARTESIAN_POINT ( 'NONE',  ( 2.618611004132349622E-15, -9.184850993605148438E-17, 0.7499999999999998890 ) ) ;
#223 = EDGE_LOOP ( 'NONE', ( #73 ) ) ;
#224 = EDGE_LOOP ( 'NONE', ( #128 ) ) ;
#225 = APPLICATION_CONTEXT ( 'configuration controlled 3d designs of mechanical parts and assemblies' ) ;
#226 = EDGE_LOOP ( 'NONE', ( #133 ) ) ;
#227 = CARTESIAN_POINT ( 'NONE',  ( 2.304377683636468267E-13, 1.874699728327305041E-32, 66.00000000000000000 ) ) ;
#228 = CIRCLE ( 'NONE', #215, 2.999999999999993339 ) ;
#229 = ORIENTED_EDGE ( 'NONE', *, *, #212, .T. ) ;
#230 = ADVANCED_FACE ( 'NONE', ( #131, #14 ), #217, .T. ) ;
#231 = PERSON_AND_ORGANIZATION ( #173, #125 ) ;
#232 = DIRECTION ( 'NONE',  ( 0.0000000000000000000, -1.000000000000000000, 0.0000000000000000000 ) ) ;
#233 = CALENDAR_DATE ( 2021, 22, 11 ) ;
#234 = PERSON_AND_ORGANIZATION_ROLE ( 'creator' ) ;
#235 = DATE_AND_TIME ( #181, #205 ) ;
#236 = CARTESIAN_POINT ( 'NONE',  ( 2.304377683636468267E-13, 2.499999999999985345, 66.00000000000000000 ) ) ;
#237 = APPROVAL ( #209, 'UNSPECIFIED' ) ;
#238 = EDGE_LOOP ( 'NONE', ( #183 ) ) ;
#239 = DIRECTION ( 'NONE',  ( -3.491481338843133355E-15, -6.327045624920145811E-17, -1.000000000000000000 ) ) ;
#240 = ORIENTED_EDGE ( 'NONE', *, *, #97, .T. ) ;
#241 = DIRECTION ( 'NONE',  ( 3.491481338843133355E-15, 6.327045624920145811E-17, 1.000000000000000000 ) ) ;
#242 = PLANE ( 'NONE',  #138 ) ;
#243 = CARTESIAN_POINT ( 'NONE',  ( 2.304377683636468267E-13, -8.082668874372532400E-15, 66.00000000000000000 ) ) ;
ENDSEC;
END-ISO-10303-21;
