ISO-10303-21;
HEADER;
FILE_DESCRIPTION (( 'STEP AP203' ),
    '1' );
FILE_NAME ('61355.step',
    '2021-11-22T07:49:26',
    ( '' ),
    ( '' ),
    'SwSTEP 2.0',
    'SolidWorks 2019',
    '' );
FILE_SCHEMA (( 'CONFIG_CONTROL_DESIGN' ));
ENDSEC;

DATA;
#1 = APPROVAL ( #80, 'UNSPECIFIED' ) ;
#2 = CALENDAR_DATE ( 2021, 22, 11 ) ;
#3 = SECURITY_CLASSIFICATION_LEVEL ( 'unclassified' ) ;
#4 = PERSON_AND_ORGANIZATION ( #205, #123 ) ;
#5 = PERSON_AND_ORGANIZATION ( #205, #123 ) ;
#6 = CARTESIAN_POINT ( 'NONE',  ( 1.117274028429803147E-14, 0.0000000000000000000, 3.200000000000001510 ) ) ;
#7 = ADVANCED_FACE ( 'NONE', ( #133, #66 ), #28, .T. ) ;
#8 = DIRECTION ( 'NONE',  ( -4.275831445896958607E-31, -1.000000000000000000, -1.224646799147353207E-16 ) ) ;
#9 = DIRECTION ( 'NONE',  ( 3.491481338843133355E-15, -1.224646799147353207E-16, 1.000000000000000000 ) ) ;
#10 = AXIS2_PLACEMENT_3D ( 'NONE', #260, #177, #219 ) ;
#11 = DIRECTION ( 'NONE',  ( 0.0000000000000000000, -1.000000000000000000, 0.0000000000000000000 ) ) ;
#12 = EDGE_LOOP ( 'NONE', ( #132 ) ) ;
#13 = DIRECTION ( 'NONE',  ( 0.0000000000000000000, 0.0000000000000000000, 1.000000000000000000 ) ) ;
#14 = AXIS2_PLACEMENT_3D ( 'NONE', #75, #257, #98 ) ;
#15 = VERTEX_POINT ( 'NONE', #99 ) ;
#16 = PRODUCT_DEFINITION ( 'UNKNOWN', '', #114, #166 ) ;
#17 = DIRECTION ( 'NONE',  ( 4.275831445896958607E-31, 1.000000000000000000, 1.224646799147353207E-16 ) ) ;
#18 = CARTESIAN_POINT ( 'NONE',  ( 1.745740669421558986E-15, -0.4999999999999977240, 0.4999999999999978351 ) ) ;
#19 = DATE_AND_TIME ( #180, #88 ) ;
#20 = EDGE_LOOP ( 'NONE', ( #131 ) ) ;
#21 = CC_DESIGN_APPROVAL ( #127, ( #52 ) ) ;
#22 = APPROVAL_STATUS ( 'not_yet_approved' ) ;
#23 = PERSON_AND_ORGANIZATION ( #205, #123 ) ;
#24 = AXIS2_PLACEMENT_3D ( 'NONE', #90, #232, #250 ) ;
#25 = DIRECTION ( 'NONE',  ( -3.491481338843133355E-15, 1.224646799147353207E-16, -1.000000000000000000 ) ) ;
#26 = DIRECTION ( 'NONE',  ( 3.491481338843133355E-15, 6.327045624920145811E-17, 1.000000000000000000 ) ) ;
#27 = ADVANCED_FACE ( 'NONE', ( #92, #152 ), #112, .T. ) ;
#28 = CYLINDRICAL_SURFACE ( 'NONE', #148, 0.4999999999999977240 ) ;
#29 = CARTESIAN_POINT ( 'NONE',  ( 1.117274028429803147E-14, 2.024654599974447744E-16, 3.200000000000001510 ) ) ;
#30 = APPLICATION_PROTOCOL_DEFINITION ( 'international standard', 'config_control_design', 1994, #253 ) ;
#31 = CC_DESIGN_PERSON_AND_ORGANIZATION_ASSIGNMENT ( #107, #209, ( #259 ) ) ;
#32 = CARTESIAN_POINT ( 'NONE',  ( 7.217725300999491559E-14, 1.307951349460614026E-15, 20.67238687688650600 ) ) ;
#33 = VERTEX_POINT ( 'NONE', #101 ) ;
#34 = CLOSED_SHELL ( 'NONE', ( #57, #45, #7 ) ) ;
#35 = APPLICATION_CONTEXT ( 'configuration controlled 3d designs of mechanical parts and assemblies' ) ;
#36 = PERSON_AND_ORGANIZATION ( #205, #123 ) ;
#37 = EDGE_LOOP ( 'NONE', ( #223 ) ) ;
#38 = COORDINATED_UNIVERSAL_TIME_OFFSET ( 1, 0, .AHEAD. ) ;
#39 = CC_DESIGN_APPROVAL ( #230, ( #16 ) ) ;
#40 = DATE_AND_TIME ( #186, #161 ) ;
#41 = DIRECTION ( 'NONE',  ( 3.491481338843133355E-15, 6.327045624920145811E-17, 1.000000000000000000 ) ) ;
#42 = AXIS2_PLACEMENT_3D ( 'NONE', #73, #154, #140 ) ;
#43 = DIRECTION ( 'NONE',  ( -3.491481338843133355E-15, -6.327045624920145811E-17, -1.000000000000000000 ) ) ;
#44 = DIRECTION ( 'NONE',  ( -4.275831445896958607E-31, -1.000000000000000000, -1.224646799147353207E-16 ) ) ;
#45 = ADVANCED_FACE ( 'NONE', ( #70 ), #173, .T. ) ;
#46 = DIRECTION ( 'NONE',  ( 2.268750991825507587E-31, -1.000000000000000000, 6.327045624920145811E-17 ) ) ;
#47 = LOCAL_TIME ( 8, 49, 26.00000000000000000, #125 ) ;
#48 = FACE_OUTER_BOUND ( 'NONE', #171, .T. ) ;
#49 = DIRECTION ( 'NONE',  ( -3.491481338843133355E-15, 1.224646799147353207E-16, -1.000000000000000000 ) ) ;
#50 = DIRECTION ( 'NONE',  ( 3.491481338843133355E-15, 6.327045624920145811E-17, 1.000000000000000000 ) ) ;
#51 = AXIS2_PLACEMENT_3D ( 'NONE', #6, #111, #46 ) ;
#52 = SECURITY_CLASSIFICATION ( '', '', #3 ) ;
#53 = CC_DESIGN_PERSON_AND_ORGANIZATION_ASSIGNMENT ( #143, #248, ( #114 ) ) ;
#54 = APPROVAL_PERSON_ORGANIZATION ( #5, #1, #106 ) ;
#55 = DATE_AND_TIME ( #2, #247 ) ;
#56 = APPROVAL_DATE_TIME ( #40, #230 ) ;
#57 = ADVANCED_FACE ( 'NONE', ( #170 ), #65, .T. ) ;
#58 = DATE_TIME_ROLE ( 'classification_date' ) ;
#59 = DATE_TIME_ROLE ( 'creation_date' ) ;
#60 = CIRCLE ( 'NONE', #156, 0.4999999999999977240 ) ;
#61 = EDGE_LOOP ( 'NONE', ( #206 ) ) ;
#62 = APPROVAL_ROLE ( '' ) ;
#63 = EDGE_LOOP ( 'NONE', ( #187 ) ) ;
#64 = FACE_OUTER_BOUND ( 'NONE', #145, .T. ) ;
#65 = PLANE ( 'NONE',  #237 ) ;
#66 = FACE_OUTER_BOUND ( 'NONE', #109, .T. ) ;
#67 = EDGE_CURVE ( 'NONE', #15, #15, #167, .T. ) ;
#68 = PRODUCT_RELATED_PRODUCT_CATEGORY ( 'detail', '', ( #259 ) ) ;
#69 = CARTESIAN_POINT ( 'NONE',  ( 2.304377683636468267E-13, -8.082668874372532400E-15, 66.00000000000000000 ) ) ;
#70 = FACE_OUTER_BOUND ( 'NONE', #78, .T. ) ;
#71 = CARTESIAN_POINT ( 'NONE',  ( 1.238531902799440007E-14, -0.4803844939755804178, 3.547296355333851015 ) ) ;
#72 = DIRECTION ( 'NONE',  ( 0.0000000000000000000, -1.000000000000000000, 0.0000000000000000000 ) ) ;
#73 = CARTESIAN_POINT ( 'NONE',  ( 6.982962677686260400E-15, 1.265409124984027930E-16, 1.999999999999998224 ) ) ;
#74 = CIRCLE ( 'NONE', #42, 0.4499999999999989009 ) ;
#75 = CARTESIAN_POINT ( 'NONE',  ( 2.286920276942252663E-13, -8.021436534415164826E-15, 65.50000000000000000 ) ) ;
#76 = ADVANCED_FACE ( 'NONE', ( #189 ), #231, .F. ) ;
#77 = CALENDAR_DATE ( 2021, 22, 11 ) ;
#78 = EDGE_LOOP ( 'NONE', ( #129 ) ) ;
#79 = CONICAL_SURFACE ( 'NONE', #10, 2.499999999999993339, 0.7853981633974473908 ) ;
#80 = APPROVAL_STATUS ( 'not_yet_approved' ) ;
#81 = EDGE_LOOP ( 'NONE', ( #86 ) ) ;
#82 = PERSON_AND_ORGANIZATION_ROLE ( 'classification_officer' ) ;
#83 = EDGE_LOOP ( 'NONE', ( #163 ) ) ;
#84 = UNCERTAINTY_MEASURE_WITH_UNIT (LENGTH_MEASURE( 1.000000000000000082E-05 ), #136, 'distance_accuracy_value', 'NONE');
#85 = APPROVAL_DATE_TIME ( #146, #1 ) ;
#86 = ORIENTED_EDGE ( 'NONE', *, *, #207, .T. ) ;
#87 = MECHANICAL_CONTEXT ( 'NONE', #253, 'mechanical' ) ;
#88 = LOCAL_TIME ( 8, 49, 26.00000000000000000, #246 ) ;
#89 = ORIENTED_EDGE ( 'NONE', *, *, #91, .F. ) ;
#90 = CARTESIAN_POINT ( 'NONE',  ( 1.238531902799440007E-14, 2.244390588531022235E-16, 3.547296355333851015 ) ) ;
#91 = EDGE_CURVE ( 'NONE', #155, #155, #138, .T. ) ;
#92 = FACE_OUTER_BOUND ( 'NONE', #12, .T. ) ;
#93 = FACE_OUTER_BOUND ( 'NONE', #63, .T. ) ;
#94 = CARTESIAN_POINT ( 'NONE',  ( 6.227666568973677278E-14, 1.128539055338100228E-15, 17.83674596707754390 ) ) ;
#95 = DIRECTION ( 'NONE',  ( 1.000000000000000000, 0.0000000000000000000, 0.0000000000000000000 ) ) ;
#96 = CIRCLE ( 'NONE', #14, 2.999999999999993339 ) ;
#97 = FACE_BOUND ( 'NONE', #105, .T. ) ;
#98 = DIRECTION ( 'NONE',  ( 0.0000000000000000000, 1.000000000000000000, 0.0000000000000000000 ) ) ;
#99 = CARTESIAN_POINT ( 'NONE',  ( 2.304377683636468267E-13, 2.499999999999985345, 66.00000000000000000 ) ) ;
#100 = ADVANCED_FACE ( 'NONE', ( #150, #48 ), #212, .T. ) ;
#101 = CARTESIAN_POINT ( 'NONE',  ( 6.982962677686260400E-15, -0.4499999999999987899, 1.999999999999998224 ) ) ;
#102 = EDGE_CURVE ( 'NONE', #121, #121, #119, .T. ) ;
#103 = APPROVAL_ROLE ( '' ) ;
#104 = SHAPE_DEFINITION_REPRESENTATION ( #141, #261 ) ;
#105 = EDGE_LOOP ( 'NONE', ( #263 ) ) ;
#106 = APPROVAL_ROLE ( '' ) ;
#107 = PERSON_AND_ORGANIZATION ( #205, #123 ) ;
#108 = AXIS2_PLACEMENT_3D ( 'NONE', #147, #252, #44 ) ;
#109 = EDGE_LOOP ( 'NONE', ( #165 ) ) ;
#110 = CARTESIAN_POINT ( 'NONE',  ( 0.0000000000000000000, 0.0000000000000000000, 0.0000000000000000000 ) ) ;
#111 = DIRECTION ( 'NONE',  ( 3.491481338843133355E-15, 6.327045624920145811E-17, 1.000000000000000000 ) ) ;
#112 = CYLINDRICAL_SURFACE ( 'NONE', #222, 0.4499999999999988454 ) ;
#113 = AXIS2_PLACEMENT_3D ( 'NONE', #118, #139, #137 ) ;
#114 = PRODUCT_DEFINITION_FORMATION_WITH_SPECIFIED_SOURCE ( 'ANY', '', #259, .NOT_KNOWN. ) ;
#115 = DIRECTION ( 'NONE',  ( 3.491481338843133355E-15, 6.327045624920145811E-17, 1.000000000000000000 ) ) ;
#116 = MANIFOLD_SOLID_BREP ( 'Corps-Déplacer/Copier1[2]', #34 ) ;
#117 = MANIFOLD_SOLID_BREP ( 'Corps-Déplacer/Copier1[1]', #188 ) ;
#118 = CARTESIAN_POINT ( 'NONE',  ( 6.982962677686260400E-15, 1.265409124984027930E-16, 1.999999999999998224 ) ) ;
#119 = CIRCLE ( 'NONE', #172, 0.4499999999999987899 ) ;
#120 = DIRECTION ( 'NONE',  ( 0.0000000000000000000, -1.000000000000000000, 0.0000000000000000000 ) ) ;
#121 = VERTEX_POINT ( 'NONE', #235 ) ;
#122 = FACE_OUTER_BOUND ( 'NONE', #20, .T. ) ;
#123 = ORGANIZATION ( 'UNSPECIFIED', 'UNSPECIFIED', '' ) ;
#124 = ADVANCED_FACE ( 'NONE', ( #93, #255 ), #243, .F. ) ;
#125 = COORDINATED_UNIVERSAL_TIME_OFFSET ( 1, 0, .AHEAD. ) ;
#126 = EDGE_CURVE ( 'NONE', #196, #196, #208, .T. ) ;
#127 = APPROVAL ( #203, 'UNSPECIFIED' ) ;
#128 = ORIENTED_EDGE ( 'NONE', *, *, #216, .F. ) ;
#129 = ORIENTED_EDGE ( 'NONE', *, *, #207, .F. ) ;
#130 = DIRECTION ( 'NONE',  ( 2.209076172941777805E-31, -1.000000000000000000, 6.327045624920144578E-17 ) ) ;
#131 = ORIENTED_EDGE ( 'NONE', *, *, #191, .F. ) ;
#132 = ORIENTED_EDGE ( 'NONE', *, *, #216, .T. ) ;
#133 = FACE_OUTER_BOUND ( 'NONE', #81, .T. ) ;
#134 = DIRECTION ( 'NONE',  ( -3.491481338843133355E-15, 1.224646799147353207E-16, -1.000000000000000000 ) ) ;
#135 = CC_DESIGN_PERSON_AND_ORGANIZATION_ASSIGNMENT ( #4, #82, ( #52 ) ) ;
#136 =( LENGTH_UNIT ( ) NAMED_UNIT ( * ) SI_UNIT ( .MILLI., .METRE. ) );
#137 = DIRECTION ( 'NONE',  ( 0.0000000000000000000, -1.000000000000000000, 0.0000000000000000000 ) ) ;
#138 = CIRCLE ( 'NONE', #256, 2.999999999999989786 ) ;
#139 = DIRECTION ( 'NONE',  ( 3.491481338843133355E-15, 6.327045624920145811E-17, 1.000000000000000000 ) ) ;
#140 = DIRECTION ( 'NONE',  ( 0.0000000000000000000, -1.000000000000000000, 0.0000000000000000000 ) ) ;
#141 = PRODUCT_DEFINITION_SHAPE ( 'NONE', 'NONE',  #16 ) ;
#142 = AXIS2_PLACEMENT_3D ( 'NONE', #110, #134, #215 ) ;
#143 = PERSON_AND_ORGANIZATION ( #205, #123 ) ;
#144 = ADVANCED_FACE ( 'NONE', ( #64 ), #228, .F. ) ;
#145 = EDGE_LOOP ( 'NONE', ( #249 ) ) ;
#146 = DATE_AND_TIME ( #204, #47 ) ;
#147 = CARTESIAN_POINT ( 'NONE',  ( 6.982962677686260400E-15, 2.249639673992775738E-32, 1.999999999999998224 ) ) ;
#148 = AXIS2_PLACEMENT_3D ( 'NONE', #193, #41, #213 ) ;
#149 = DIRECTION ( 'NONE',  ( 0.0000000000000000000, 1.000000000000000000, 0.0000000000000000000 ) ) ;
#150 = FACE_OUTER_BOUND ( 'NONE', #61, .T. ) ;
#151 = AXIS2_PLACEMENT_3D ( 'NONE', #69, #25, #149 ) ;
#152 = FACE_OUTER_BOUND ( 'NONE', #37, .T. ) ;
#153 = CC_DESIGN_SECURITY_CLASSIFICATION ( #52, ( #114 ) ) ;
#154 = DIRECTION ( 'NONE',  ( 3.491481338843133355E-15, 6.327045624920145811E-17, 1.000000000000000000 ) ) ;
#155 = VERTEX_POINT ( 'NONE', #238 ) ;
#156 = AXIS2_PLACEMENT_3D ( 'NONE', #258, #158, #72 ) ;
#157 = FACE_BOUND ( 'NONE', #251, .T. ) ;
#158 = DIRECTION ( 'NONE',  ( 3.491481338843133355E-15, 6.327045624920145811E-17, 1.000000000000000000 ) ) ;
#159 = ORIENTED_EDGE ( 'NONE', *, *, #126, .T. ) ;
#160 = AXIS2_PLACEMENT_3D ( 'NONE', #197, #49, #17 ) ;
#161 = LOCAL_TIME ( 8, 49, 26.00000000000000000, #38 ) ;
#162 = PERSON_AND_ORGANIZATION ( #205, #123 ) ;
#163 = ORIENTED_EDGE ( 'NONE', *, *, #239, .T. ) ;
#164 = COORDINATED_UNIVERSAL_TIME_OFFSET ( 1, 0, .AHEAD. ) ;
#165 = ORIENTED_EDGE ( 'NONE', *, *, #239, .F. ) ;
#166 = DESIGN_CONTEXT ( 'detailed design', #35, 'design' ) ;
#167 = CIRCLE ( 'NONE', #151, 2.499999999999993339 ) ;
#168 = CONICAL_SURFACE ( 'NONE', #176, 3.499999999999988010, 0.1745329251994259256 ) ;
#169 = ADVANCED_FACE ( 'NONE', ( #157, #236 ), #168, .T. ) ;
#170 = FACE_OUTER_BOUND ( 'NONE', #83, .T. ) ;
#171 = EDGE_LOOP ( 'NONE', ( #89 ) ) ;
#172 = AXIS2_PLACEMENT_3D ( 'NONE', #29, #26, #175 ) ;
#173 = SPHERICAL_SURFACE ( 'NONE', #218, 0.4999999999999979461 ) ;
#174 = CARTESIAN_POINT ( 'NONE',  ( 6.982962677686260400E-15, 2.249639673992775738E-32, 1.999999999999998224 ) ) ;
#175 = DIRECTION ( 'NONE',  ( 0.0000000000000000000, -1.000000000000000000, 0.0000000000000000000 ) ) ;
#176 = AXIS2_PLACEMENT_3D ( 'NONE', #32, #50, #120 ) ;
#177 = DIRECTION ( 'NONE',  ( -3.491481338843133355E-15, 1.224646799147353207E-16, -1.000000000000000000 ) ) ;
#178 = CC_DESIGN_PERSON_AND_ORGANIZATION_ASSIGNMENT ( #36, #245, ( #114 ) ) ;
#179 = CARTESIAN_POINT ( 'NONE',  ( 2.286920276942252663E-13, 2.999999999999985345, 65.50000000000000000 ) ) ;
#180 = CALENDAR_DATE ( 2021, 22, 11 ) ;
#181 = APPLICATION_PROTOCOL_DEFINITION ( 'international standard', 'config_control_design', 1994, #35 ) ;
#182 = CC_DESIGN_DATE_AND_TIME_ASSIGNMENT ( #55, #59, ( #16 ) ) ;
#183 = COORDINATED_UNIVERSAL_TIME_OFFSET ( 1, 0, .AHEAD. ) ;
#184 = ORIENTED_EDGE ( 'NONE', *, *, #126, .F. ) ;
#185 = DATE_AND_TIME ( #77, #201 ) ;
#186 = CALENDAR_DATE ( 2021, 22, 11 ) ;
#187 = ORIENTED_EDGE ( 'NONE', *, *, #102, .T. ) ;
#188 = CLOSED_SHELL ( 'NONE', ( #100, #195, #144, #169, #27, #124, #76 ) ) ;
#189 = FACE_OUTER_BOUND ( 'NONE', #214, .T. ) ;
#190 = CARTESIAN_POINT ( 'NONE',  ( 1.745740669421558986E-15, -2.168404344971008868E-16, 0.4999999999999978351 ) ) ;
#191 = EDGE_CURVE ( 'NONE', #199, #199, #96, .T. ) ;
#192 = CARTESIAN_POINT ( 'NONE',  ( 0.0000000000000000000, 0.0000000000000000000, 0.0000000000000000000 ) ) ;
#193 = CARTESIAN_POINT ( 'NONE',  ( 0.0000000000000000000, 0.0000000000000000000, 0.0000000000000000000 ) ) ;
#194 = CARTESIAN_POINT ( 'NONE',  ( 0.0000000000000000000, 0.0000000000000000000, 0.0000000000000000000 ) ) ;
#195 = ADVANCED_FACE ( 'NONE', ( #122, #97 ), #79, .T. ) ;
#196 = VERTEX_POINT ( 'NONE', #71 ) ;
#197 = CARTESIAN_POINT ( 'NONE',  ( 2.304377683636468267E-13, 1.874699728327305041E-32, 66.00000000000000000 ) ) ;
#198 = CARTESIAN_POINT ( 'NONE',  ( 6.982962677686260400E-15, -0.4999999999999976130, 1.999999999999998224 ) ) ;
#199 = VERTEX_POINT ( 'NONE', #179 ) ;
#200 =( GEOMETRIC_REPRESENTATION_CONTEXT ( 3 ) GLOBAL_UNCERTAINTY_ASSIGNED_CONTEXT ( ( #84 ) ) GLOBAL_UNIT_ASSIGNED_CONTEXT ( ( #136, #217, #221 ) ) REPRESENTATION_CONTEXT ( 'NONE', 'WORKASPACE' ) );
#201 = LOCAL_TIME ( 8, 49, 26.00000000000000000, #164 ) ;
#202 = CC_DESIGN_APPROVAL ( #1, ( #114 ) ) ;
#203 = APPROVAL_STATUS ( 'not_yet_approved' ) ;
#204 = CALENDAR_DATE ( 2021, 22, 11 ) ;
#205 = PERSON ( 'UNSPECIFIED', 'UNSPECIFIED', 'UNSPECIFIED', ('UNSPECIFIED'), ('UNSPECIFIED'), ('UNSPECIFIED') ) ;
#206 = ORIENTED_EDGE ( 'NONE', *, *, #191, .T. ) ;
#207 = EDGE_CURVE ( 'NONE', #220, #220, #60, .T. ) ;
#208 = CIRCLE ( 'NONE', #24, 0.4803844939755806398 ) ;
#209 = PERSON_AND_ORGANIZATION_ROLE ( 'design_owner' ) ;
#210 = EDGE_LOOP ( 'NONE', ( #227 ) ) ;
#211 = APPROVAL_PERSON_ORGANIZATION ( #262, #127, #103 ) ;
#212 = CYLINDRICAL_SURFACE ( 'NONE', #142, 2.999999999999989786 ) ;
#213 = DIRECTION ( 'NONE',  ( 2.209076172941778243E-31, -1.000000000000000000, 6.327045624920145811E-17 ) ) ;
#214 = EDGE_LOOP ( 'NONE', ( #128 ) ) ;
#215 = DIRECTION ( 'NONE',  ( 4.275831445896958607E-31, 1.000000000000000000, 1.224646799147353207E-16 ) ) ;
#216 = EDGE_CURVE ( 'NONE', #33, #33, #74, .T. ) ;
#217 =( NAMED_UNIT ( * ) PLANE_ANGLE_UNIT ( ) SI_UNIT ( $, .RADIAN. ) );
#218 = AXIS2_PLACEMENT_3D ( 'NONE', #190, #234, #229 ) ;
#219 = DIRECTION ( 'NONE',  ( 0.0000000000000000000, 1.000000000000000000, 0.0000000000000000000 ) ) ;
#220 = VERTEX_POINT ( 'NONE', #18 ) ;
#221 =( NAMED_UNIT ( * ) SI_UNIT ( $, .STERADIAN. ) SOLID_ANGLE_UNIT ( ) );
#222 = AXIS2_PLACEMENT_3D ( 'NONE', #192, #115, #130 ) ;
#223 = ORIENTED_EDGE ( 'NONE', *, *, #102, .F. ) ;
#224 = APPROVAL_DATE_TIME ( #19, #127 ) ;
#225 = CIRCLE ( 'NONE', #113, 0.4999999999999977240 ) ;
#226 = EDGE_LOOP ( 'NONE', ( #184 ) ) ;
#227 = ORIENTED_EDGE ( 'NONE', *, *, #91, .T. ) ;
#228 = PLANE ( 'NONE',  #160 ) ;
#229 = DIRECTION ( 'NONE',  ( 0.0000000000000000000, 1.000000000000000000, 0.0000000000000000000 ) ) ;
#230 = APPROVAL ( #22, 'UNSPECIFIED' ) ;
#231 = PLANE ( 'NONE',  #108 ) ;
#232 = DIRECTION ( 'NONE',  ( 3.491481338843133355E-15, 6.327045624920145811E-17, 1.000000000000000000 ) ) ;
#233 = AXIS2_PLACEMENT_3D ( 'NONE', #194, #13, #95 ) ;
#234 = DIRECTION ( 'NONE',  ( -1.000000000000000000, 0.0000000000000000000, 3.491481338843132961E-15 ) ) ;
#235 = CARTESIAN_POINT ( 'NONE',  ( 1.117274028429803147E-14, -0.4499999999999985678, 3.200000000000001510 ) ) ;
#236 = FACE_OUTER_BOUND ( 'NONE', #210, .T. ) ;
#237 = AXIS2_PLACEMENT_3D ( 'NONE', #174, #9, #8 ) ;
#238 = CARTESIAN_POINT ( 'NONE',  ( 6.227666568973677278E-14, -2.999999999999988454, 17.83674596707754390 ) ) ;
#239 = EDGE_CURVE ( 'NONE', #241, #241, #225, .T. ) ;
#240 = CC_DESIGN_DATE_AND_TIME_ASSIGNMENT ( #185, #58, ( #52 ) ) ;
#241 = VERTEX_POINT ( 'NONE', #198 ) ;
#242 = PERSON_AND_ORGANIZATION_ROLE ( 'creator' ) ;
#243 = TOROIDAL_SURFACE ( 'NONE', #51, 2.449999999999998845, 2.000000000000000000 ) ;
#244 = APPROVAL_PERSON_ORGANIZATION ( #23, #230, #62 ) ;
#245 = PERSON_AND_ORGANIZATION_ROLE ( 'design_supplier' ) ;
#246 = COORDINATED_UNIVERSAL_TIME_OFFSET ( 1, 0, .AHEAD. ) ;
#247 = LOCAL_TIME ( 8, 49, 26.00000000000000000, #183 ) ;
#248 = PERSON_AND_ORGANIZATION_ROLE ( 'creator' ) ;
#249 = ORIENTED_EDGE ( 'NONE', *, *, #67, .F. ) ;
#250 = DIRECTION ( 'NONE',  ( 0.0000000000000000000, -1.000000000000000000, 0.0000000000000000000 ) ) ;
#251 = EDGE_LOOP ( 'NONE', ( #159 ) ) ;
#252 = DIRECTION ( 'NONE',  ( 3.491481338843133355E-15, -1.224646799147353207E-16, 1.000000000000000000 ) ) ;
#253 = APPLICATION_CONTEXT ( 'configuration controlled 3d designs of mechanical parts and assemblies' ) ;
#254 = CC_DESIGN_PERSON_AND_ORGANIZATION_ASSIGNMENT ( #162, #242, ( #16 ) ) ;
#255 = FACE_OUTER_BOUND ( 'NONE', #226, .T. ) ;
#256 = AXIS2_PLACEMENT_3D ( 'NONE', #94, #43, #11 ) ;
#257 = DIRECTION ( 'NONE',  ( -3.491481338843133355E-15, 1.224646799147353207E-16, -1.000000000000000000 ) ) ;
#258 = CARTESIAN_POINT ( 'NONE',  ( 1.745740669421558986E-15, 3.163522812460059347E-17, 0.4999999999999978351 ) ) ;
#259 = PRODUCT ( '61355', '61355', '', ( #87 ) ) ;
#260 = CARTESIAN_POINT ( 'NONE',  ( 2.304377683636468267E-13, -8.082668874372532400E-15, 66.00000000000000000 ) ) ;
#261 = ADVANCED_BREP_SHAPE_REPRESENTATION ( '61355', ( #117, #116, #233 ), #200 ) ;
#262 = PERSON_AND_ORGANIZATION ( #205, #123 ) ;
#263 = ORIENTED_EDGE ( 'NONE', *, *, #67, .T. ) ;
ENDSEC;
END-ISO-10303-21;
