ISO-10303-21;
HEADER;
FILE_DESCRIPTION (( 'STEP AP203' ),
    '1' );
FILE_NAME ('61352.step',
    '2021-11-01T12:23:45',
    ( '' ),
    ( '' ),
    'SwSTEP 2.0',
    'SolidWorks 2019',
    '' );
FILE_SCHEMA (( 'CONFIG_CONTROL_DESIGN' ));
ENDSEC;

DATA;
#1 = CALENDAR_DATE ( 2021, 1, 11 ) ;
#2 = AXIS2_PLACEMENT_3D ( 'NONE', #7, #219, #177 ) ;
#3 = ORIENTED_EDGE ( 'NONE', *, *, #154, .T. ) ;
#4 = CLOSED_SHELL ( 'NONE', ( #84, #218, #14, #183, #88 ) ) ;
#5 = ORIENTED_EDGE ( 'NONE', *, *, #99, .T. ) ;
#6 = CARTESIAN_POINT ( 'NONE',  ( 1.256933281983528008E-14, 1.124819836996387048E-32, 3.600000000000000089 ) ) ;
#7 = CARTESIAN_POINT ( 'NONE',  ( 1.256933281983527692E-14, 0.0000000000000000000, 3.599999999999999201 ) ) ;
#8 = AXIS2_PLACEMENT_3D ( 'NONE', #131, #214, #89 ) ;
#9 = EDGE_CURVE ( 'NONE', #93, #93, #199, .T. ) ;
#10 = CARTESIAN_POINT ( 'NONE',  ( 1.316288464743861212E-13, 1.499999999999992228, 37.69999999999999574 ) ) ;
#11 = VERTEX_POINT ( 'NONE', #201 ) ;
#12 = APPROVAL ( #113, 'UNSPECIFIED' ) ;
#13 = DIRECTION ( 'NONE',  ( -3.491481338843133355E-15, 1.224646799147353207E-16, -1.000000000000000000 ) ) ;
#14 = ADVANCED_FACE ( 'NONE', ( #37 ), #174, .F. ) ;
#15 = LOCAL_TIME ( 13, 23, 45.00000000000000000, #207 ) ;
#16 = DATE_TIME_ROLE ( 'classification_date' ) ;
#17 = APPLICATION_PROTOCOL_DEFINITION ( 'international standard', 'config_control_design', 1994, #150 ) ;
#18 = APPROVAL_STATUS ( 'not_yet_approved' ) ;
#19 = COORDINATED_UNIVERSAL_TIME_OFFSET ( 1, 0, .AHEAD. ) ;
#20 = AXIS2_PLACEMENT_3D ( 'NONE', #208, #64, #97 ) ;
#21 = EDGE_LOOP ( 'NONE', ( #192 ) ) ;
#22 = DIRECTION ( 'NONE',  ( 3.491481338843133355E-15, -1.224646799147353207E-16, 1.000000000000000000 ) ) ;
#23 = EDGE_CURVE ( 'NONE', #158, #158, #57, .T. ) ;
#24 = CARTESIAN_POINT ( 'NONE',  ( 1.326762908760390423E-13, 8.998558695971051224E-33, 38.00000000000000000 ) ) ;
#25 = DIRECTION ( 'NONE',  ( 0.0000000000000000000, 1.000000000000000000, 0.0000000000000000000 ) ) ;
#26 = ORGANIZATION ( 'UNSPECIFIED', 'UNSPECIFIED', '' ) ;
#27 = DIRECTION ( 'NONE',  ( -4.285855558155654155E-31, -1.000000000000000000, -1.227517819005650812E-16 ) ) ;
#28 = MANIFOLD_SOLID_BREP ( 'Corps-Déplacer/Copier1[1]', #4 ) ;
#29 = PERSON_AND_ORGANIZATION ( #155, #26 ) ;
#30 = MANIFOLD_SOLID_BREP ( 'Corps-Déplacer/Copier1[2]', #107 ) ;
#31 = PERSON_AND_ORGANIZATION ( #155, #26 ) ;
#32 = APPROVAL_DATE_TIME ( #186, #95 ) ;
#33 = DATE_AND_TIME ( #187, #216 ) ;
#34 = APPROVAL ( #18, 'UNSPECIFIED' ) ;
#35 = PLANE ( 'NONE',  #195 ) ;
#36 = EDGE_LOOP ( 'NONE', ( #213 ) ) ;
#37 = FACE_OUTER_BOUND ( 'NONE', #109, .T. ) ;
#38 = APPLICATION_CONTEXT ( 'configuration controlled 3d designs of mechanical parts and assemblies' ) ;
#39 = AXIS2_PLACEMENT_3D ( 'NONE', #6, #117, #75 ) ;
#40 = CC_DESIGN_PERSON_AND_ORGANIZATION_ASSIGNMENT ( #49, #68, ( #165 ) ) ;
#41 = CYLINDRICAL_SURFACE ( 'NONE', #120, 1.499999999999994893 ) ;
#42 = DIRECTION ( 'NONE',  ( -4.275831445896958607E-31, -1.000000000000000000, -1.224646799147353207E-16 ) ) ;
#43 = DIRECTION ( 'NONE',  ( 3.491481338843133355E-15, -1.227517819005651059E-16, 1.000000000000000000 ) ) ;
#44 = TOROIDAL_SURFACE ( 'NONE', #2, 8.599999999999999645, 8.000000000000000000 ) ;
#45 = DESIGN_CONTEXT ( 'detailed design', #150, 'design' ) ;
#46 =( NAMED_UNIT ( * ) SI_UNIT ( $, .STERADIAN. ) SOLID_ANGLE_UNIT ( ) );
#47 = AXIS2_PLACEMENT_3D ( 'NONE', #24, #106, #127 ) ;
#48 = APPROVAL_STATUS ( 'not_yet_approved' ) ;
#49 = PERSON_AND_ORGANIZATION ( #155, #26 ) ;
#50 = SECURITY_CLASSIFICATION_LEVEL ( 'unclassified' ) ;
#51 = EDGE_LOOP ( 'NONE', ( #140 ) ) ;
#52 = CC_DESIGN_APPROVAL ( #12, ( #165 ) ) ;
#53 = ORIENTED_EDGE ( 'NONE', *, *, #130, .T. ) ;
#54 = FACE_OUTER_BOUND ( 'NONE', #51, .T. ) ;
#55 = ORIENTED_EDGE ( 'NONE', *, *, #154, .F. ) ;
#56 = SECURITY_CLASSIFICATION ( '', '', #50 ) ;
#57 = CIRCLE ( 'NONE', #112, 1.499999999999994893 ) ;
#58 = ORIENTED_EDGE ( 'NONE', *, *, #23, .T. ) ;
#59 = FACE_OUTER_BOUND ( 'NONE', #101, .T. ) ;
#60 = CARTESIAN_POINT ( 'NONE',  ( -5.143026669786783760E-31, -0.5999999999999998668, -1.473021382806781073E-16 ) ) ;
#61 = DIRECTION ( 'NONE',  ( 0.0000000000000000000, -1.000000000000000000, 0.0000000000000000000 ) ) ;
#62 = FACE_OUTER_BOUND ( 'NONE', #108, .T. ) ;
#63 =( NAMED_UNIT ( * ) PLANE_ANGLE_UNIT ( ) SI_UNIT ( $, .RADIAN. ) );
#64 = DIRECTION ( 'NONE',  ( 0.0000000000000000000, 0.0000000000000000000, 1.000000000000000000 ) ) ;
#65 = CIRCLE ( 'NONE', #69, 0.6000000000000003109 ) ;
#66 = COORDINATED_UNIVERSAL_TIME_OFFSET ( 1, 0, .AHEAD. ) ;
#67 = ADVANCED_FACE ( 'NONE', ( #91 ), #73, .F. ) ;
#68 = PERSON_AND_ORGANIZATION_ROLE ( 'creator' ) ;
#69 = AXIS2_PLACEMENT_3D ( 'NONE', #76, #136, #178 ) ;
#70 = APPROVAL_ROLE ( '' ) ;
#71 = ORIENTED_EDGE ( 'NONE', *, *, #9, .T. ) ;
#72 = APPROVAL_PERSON_ORGANIZATION ( #189, #34, #70 ) ;
#73 = PLANE ( 'NONE',  #8 ) ;
#74 = EDGE_LOOP ( 'NONE', ( #3 ) ) ;
#75 = DIRECTION ( 'NONE',  ( -4.275831445896958607E-31, -1.000000000000000000, -1.224646799147353207E-16 ) ) ;
#76 = CARTESIAN_POINT ( 'NONE',  ( 1.256933281983527692E-14, -4.419064148420342726E-16, 3.599999999999999201 ) ) ;
#77 = CARTESIAN_POINT ( 'NONE',  ( 1.326762908760390423E-13, -4.653657836759941941E-15, 38.00000000000000000 ) ) ;
#78 = CARTESIAN_POINT ( 'NONE',  ( 1.326762908760390423E-13, 1.199999999999991962, 38.00000000000000000 ) ) ;
#79 = AXIS2_PLACEMENT_3D ( 'NONE', #217, #13, #197 ) ;
#80 = CYLINDRICAL_SURFACE ( 'NONE', #96, 0.6000000000000000888 ) ;
#81 = ADVANCED_FACE ( 'NONE', ( #153 ), #149, .T. ) ;
#82 = PERSON_AND_ORGANIZATION ( #155, #26 ) ;
#83 = PERSON_AND_ORGANIZATION_ROLE ( 'creator' ) ;
#84 = ADVANCED_FACE ( 'NONE', ( #129, #54 ), #41, .T. ) ;
#85 = PRODUCT_DEFINITION_FORMATION_WITH_SPECIFIED_SOURCE ( 'ANY', '', #103, .NOT_KNOWN. ) ;
#86 = COORDINATED_UNIVERSAL_TIME_OFFSET ( 1, 0, .AHEAD. ) ;
#87 =( GEOMETRIC_REPRESENTATION_CONTEXT ( 3 ) GLOBAL_UNCERTAINTY_ASSIGNED_CONTEXT ( ( #159 ) ) GLOBAL_UNIT_ASSIGNED_CONTEXT ( ( #161, #63, #46 ) ) REPRESENTATION_CONTEXT ( 'NONE', 'WORKASPACE' ) );
#88 = ADVANCED_FACE ( 'NONE', ( #190 ), #35, .F. ) ;
#89 = DIRECTION ( 'NONE',  ( -4.275831445896958607E-31, -1.000000000000000000, -1.224646799147353207E-16 ) ) ;
#90 = DIRECTION ( 'NONE',  ( 3.491481338843133355E-15, -1.227517819005651059E-16, 1.000000000000000000 ) ) ;
#91 = FACE_OUTER_BOUND ( 'NONE', #171, .T. ) ;
#92 = CARTESIAN_POINT ( 'NONE',  ( 1.326762908760390423E-13, -4.653657836759941941E-15, 38.00000000000000000 ) ) ;
#93 = VERTEX_POINT ( 'NONE', #60 ) ;
#94 = DIRECTION ( 'NONE',  ( 3.491481338843133355E-15, -1.227517819005651059E-16, 1.000000000000000000 ) ) ;
#95 = APPROVAL ( #48, 'UNSPECIFIED' ) ;
#96 = AXIS2_PLACEMENT_3D ( 'NONE', #221, #43, #27 ) ;
#97 = DIRECTION ( 'NONE',  ( 1.000000000000000000, 0.0000000000000000000, 0.0000000000000000000 ) ) ;
#98 = PERSON_AND_ORGANIZATION_ROLE ( 'design_supplier' ) ;
#99 = EDGE_CURVE ( 'NONE', #160, #160, #169, .T. ) ;
#100 = APPROVAL_DATE_TIME ( #33, #12 ) ;
#101 = EDGE_LOOP ( 'NONE', ( #71 ) ) ;
#102 = CONICAL_SURFACE ( 'NONE', #191, 1.199999999999996403, 0.7853981633974461696 ) ;
#103 = PRODUCT ( '61352', '61352', '', ( #141 ) ) ;
#104 = CARTESIAN_POINT ( 'NONE',  ( 1.256933281983528008E-14, 1.124819836996387048E-32, 3.600000000000000089 ) ) ;
#105 = CARTESIAN_POINT ( 'NONE',  ( -2.571513334893392318E-31, -1.350828267700897679E-32, -7.365106914033905366E-17 ) ) ;
#106 = DIRECTION ( 'NONE',  ( -3.491481338843133355E-15, 1.224646799147353207E-16, -1.000000000000000000 ) ) ;
#107 = CLOSED_SHELL ( 'NONE', ( #81, #170, #67 ) ) ;
#108 = EDGE_LOOP ( 'NONE', ( #5 ) ) ;
#109 = EDGE_LOOP ( 'NONE', ( #55 ) ) ;
#110 = FACE_BOUND ( 'NONE', #74, .T. ) ;
#111 = AXIS2_PLACEMENT_3D ( 'NONE', #77, #119, #25 ) ;
#112 = AXIS2_PLACEMENT_3D ( 'NONE', #196, #172, #151 ) ;
#113 = APPROVAL_STATUS ( 'not_yet_approved' ) ;
#114 = CALENDAR_DATE ( 2021, 1, 11 ) ;
#115 = DATE_AND_TIME ( #162, #145 ) ;
#116 = DIRECTION ( 'NONE',  ( 4.275831445896958607E-31, 1.000000000000000000, 1.224646799147353207E-16 ) ) ;
#117 = DIRECTION ( 'NONE',  ( 3.491481338843133355E-15, -1.224646799147353207E-16, 1.000000000000000000 ) ) ;
#118 = DIRECTION ( 'NONE',  ( 0.0000000000000000000, 1.000000000000000000, 0.0000000000000000000 ) ) ;
#119 = DIRECTION ( 'NONE',  ( -3.491481338843133355E-15, 1.224646799147353207E-16, -1.000000000000000000 ) ) ;
#120 = AXIS2_PLACEMENT_3D ( 'NONE', #147, #211, #116 ) ;
#121 = CC_DESIGN_DATE_AND_TIME_ASSIGNMENT ( #167, #222, ( #165 ) ) ;
#122 = APPROVAL_DATE_TIME ( #185, #34 ) ;
#123 = APPROVAL_ROLE ( '' ) ;
#124 = CC_DESIGN_PERSON_AND_ORGANIZATION_ASSIGNMENT ( #31, #83, ( #85 ) ) ;
#125 = AXIS2_PLACEMENT_3D ( 'NONE', #105, #90, #194 ) ;
#126 = EDGE_CURVE ( 'NONE', #11, #11, #65, .T. ) ;
#127 = DIRECTION ( 'NONE',  ( 4.275831445896958607E-31, 1.000000000000000000, 1.224646799147353207E-16 ) ) ;
#128 = EDGE_LOOP ( 'NONE', ( #53 ) ) ;
#129 = FACE_OUTER_BOUND ( 'NONE', #128, .T. ) ;
#130 = EDGE_CURVE ( 'NONE', #200, #200, #137, .T. ) ;
#131 = CARTESIAN_POINT ( 'NONE',  ( -8.551680453529350800E-31, 2.999525725151307090E-32, -2.449298628175645296E-16 ) ) ;
#132 = ORIENTED_EDGE ( 'NONE', *, *, #126, .T. ) ;
#133 = LOCAL_TIME ( 13, 23, 45.00000000000000000, #19 ) ;
#134 = DIRECTION ( 'NONE',  ( -3.491481338843133355E-15, 1.224646799147353207E-16, -1.000000000000000000 ) ) ;
#135 = VERTEX_POINT ( 'NONE', #78 ) ;
#136 = DIRECTION ( 'NONE',  ( 3.491481338843133355E-15, -1.227517819005651059E-16, 1.000000000000000000 ) ) ;
#137 = CIRCLE ( 'NONE', #79, 1.499999999999996669 ) ;
#138 = CC_DESIGN_SECURITY_CLASSIFICATION ( #56, ( #85 ) ) ;
#139 = FACE_OUTER_BOUND ( 'NONE', #152, .T. ) ;
#140 = ORIENTED_EDGE ( 'NONE', *, *, #23, .F. ) ;
#141 = MECHANICAL_CONTEXT ( 'NONE', #38, 'mechanical' ) ;
#142 = PERSON_AND_ORGANIZATION_ROLE ( 'design_owner' ) ;
#143 = CC_DESIGN_PERSON_AND_ORGANIZATION_ASSIGNMENT ( #29, #98, ( #85 ) ) ;
#144 = CALENDAR_DATE ( 2021, 1, 11 ) ;
#145 = LOCAL_TIME ( 13, 23, 45.00000000000000000, #66 ) ;
#146 = PRODUCT_DEFINITION_SHAPE ( 'NONE', 'NONE',  #165 ) ;
#147 = CARTESIAN_POINT ( 'NONE',  ( 0.0000000000000000000, 0.0000000000000000000, 0.0000000000000000000 ) ) ;
#148 = SHAPE_DEFINITION_REPRESENTATION ( #146, #168 ) ;
#149 = PLANE ( 'NONE',  #39 ) ;
#150 = APPLICATION_CONTEXT ( 'configuration controlled 3d designs of mechanical parts and assemblies' ) ;
#151 = DIRECTION ( 'NONE',  ( 0.0000000000000000000, 1.000000000000000000, 0.0000000000000000000 ) ) ;
#152 = EDGE_LOOP ( 'NONE', ( #58 ) ) ;
#153 = FACE_OUTER_BOUND ( 'NONE', #215, .T. ) ;
#154 = EDGE_CURVE ( 'NONE', #135, #135, #209, .T. ) ;
#155 = PERSON ( 'UNSPECIFIED', 'UNSPECIFIED', 'UNSPECIFIED', ('UNSPECIFIED'), ('UNSPECIFIED'), ('UNSPECIFIED') ) ;
#156 = FACE_OUTER_BOUND ( 'NONE', #212, .T. ) ;
#157 = CARTESIAN_POINT ( 'NONE',  ( 2.544054511540657940E-14, 1.499999999999994449, 7.286461718233340434 ) ) ;
#158 = VERTEX_POINT ( 'NONE', #157 ) ;
#159 = UNCERTAINTY_MEASURE_WITH_UNIT (LENGTH_MEASURE( 1.000000000000000082E-05 ), #161, 'distance_accuracy_value', 'NONE');
#160 = VERTEX_POINT ( 'NONE', #198 ) ;
#161 =( LENGTH_UNIT ( ) NAMED_UNIT ( * ) SI_UNIT ( .MILLI., .METRE. ) );
#162 = CALENDAR_DATE ( 2021, 1, 11 ) ;
#163 = COORDINATED_UNIVERSAL_TIME_OFFSET ( 1, 0, .AHEAD. ) ;
#164 = PERSON_AND_ORGANIZATION_ROLE ( 'classification_officer' ) ;
#165 = PRODUCT_DEFINITION ( 'UNKNOWN', '', #85, #45 ) ;
#166 = APPROVAL_PERSON_ORGANIZATION ( #210, #12, #182 ) ;
#167 = DATE_AND_TIME ( #1, #133 ) ;
#168 = ADVANCED_BREP_SHAPE_REPRESENTATION ( '61352', ( #28, #30, #20 ), #87 ) ;
#169 = CIRCLE ( 'NONE', #176, 0.6000000000000003109 ) ;
#170 = ADVANCED_FACE ( 'NONE', ( #59, #180 ), #80, .T. ) ;
#171 = EDGE_LOOP ( 'NONE', ( #179 ) ) ;
#172 = DIRECTION ( 'NONE',  ( -3.491481338843133355E-15, 1.227517819005651059E-16, -1.000000000000000000 ) ) ;
#173 = CC_DESIGN_PERSON_AND_ORGANIZATION_ASSIGNMENT ( #223, #164, ( #56 ) ) ;
#174 = PLANE ( 'NONE',  #47 ) ;
#175 = CARTESIAN_POINT ( 'NONE',  ( 1.256933281983527692E-14, -4.419064148420342726E-16, 3.599999999999999201 ) ) ;
#176 = AXIS2_PLACEMENT_3D ( 'NONE', #175, #94, #61 ) ;
#177 = DIRECTION ( 'NONE',  ( -4.365841384671495503E-31, -1.000000000000000000, -1.227517819005651059E-16 ) ) ;
#178 = DIRECTION ( 'NONE',  ( 0.0000000000000000000, -1.000000000000000000, 0.0000000000000000000 ) ) ;
#179 = ORIENTED_EDGE ( 'NONE', *, *, #9, .F. ) ;
#180 = FACE_OUTER_BOUND ( 'NONE', #21, .T. ) ;
#181 = CC_DESIGN_DATE_AND_TIME_ASSIGNMENT ( #115, #16, ( #56 ) ) ;
#182 = APPROVAL_ROLE ( '' ) ;
#183 = ADVANCED_FACE ( 'NONE', ( #62, #139 ), #44, .F. ) ;
#184 = ORIENTED_EDGE ( 'NONE', *, *, #130, .F. ) ;
#185 = DATE_AND_TIME ( #144, #203 ) ;
#186 = DATE_AND_TIME ( #114, #15 ) ;
#187 = CALENDAR_DATE ( 2021, 1, 11 ) ;
#188 = CC_DESIGN_APPROVAL ( #34, ( #85 ) ) ;
#189 = PERSON_AND_ORGANIZATION ( #155, #26 ) ;
#190 = FACE_OUTER_BOUND ( 'NONE', #36, .T. ) ;
#191 = AXIS2_PLACEMENT_3D ( 'NONE', #92, #134, #118 ) ;
#192 = ORIENTED_EDGE ( 'NONE', *, *, #126, .F. ) ;
#193 = CC_DESIGN_PERSON_AND_ORGANIZATION_ASSIGNMENT ( #82, #142, ( #103 ) ) ;
#194 = DIRECTION ( 'NONE',  ( -4.285855558155653280E-31, -1.000000000000000000, -1.227517819005651059E-16 ) ) ;
#195 = AXIS2_PLACEMENT_3D ( 'NONE', #104, #22, #42 ) ;
#196 = CARTESIAN_POINT ( 'NONE',  ( 2.544054511540657940E-14, -4.525197448213616114E-16, 7.286461718233340434 ) ) ;
#197 = DIRECTION ( 'NONE',  ( 0.0000000000000000000, 1.000000000000000000, 0.0000000000000000000 ) ) ;
#198 = CARTESIAN_POINT ( 'NONE',  ( 1.256933281983527692E-14, -0.6000000000000007550, 3.599999999999999201 ) ) ;
#199 = CIRCLE ( 'NONE', #125, 0.5999999999999998668 ) ;
#200 = VERTEX_POINT ( 'NONE', #10 ) ;
#201 = CARTESIAN_POINT ( 'NONE',  ( 1.256933281983527692E-14, -0.6000000000000007550, 3.599999999999999201 ) ) ;
#202 = APPLICATION_PROTOCOL_DEFINITION ( 'international standard', 'config_control_design', 1994, #38 ) ;
#203 = LOCAL_TIME ( 13, 23, 45.00000000000000000, #86 ) ;
#204 = CC_DESIGN_APPROVAL ( #95, ( #56 ) ) ;
#205 = PERSON_AND_ORGANIZATION ( #155, #26 ) ;
#206 = PRODUCT_RELATED_PRODUCT_CATEGORY ( 'detail', '', ( #103 ) ) ;
#207 = COORDINATED_UNIVERSAL_TIME_OFFSET ( 1, 0, .AHEAD. ) ;
#208 = CARTESIAN_POINT ( 'NONE',  ( 0.0000000000000000000, 0.0000000000000000000, 0.0000000000000000000 ) ) ;
#209 = CIRCLE ( 'NONE', #111, 1.199999999999996403 ) ;
#210 = PERSON_AND_ORGANIZATION ( #155, #26 ) ;
#211 = DIRECTION ( 'NONE',  ( -3.491481338843133355E-15, 1.224646799147353207E-16, -1.000000000000000000 ) ) ;
#212 = EDGE_LOOP ( 'NONE', ( #184 ) ) ;
#213 = ORIENTED_EDGE ( 'NONE', *, *, #99, .F. ) ;
#214 = DIRECTION ( 'NONE',  ( 3.491481338843133355E-15, -1.224646799147353207E-16, 1.000000000000000000 ) ) ;
#215 = EDGE_LOOP ( 'NONE', ( #132 ) ) ;
#216 = LOCAL_TIME ( 13, 23, 45.00000000000000000, #163 ) ;
#217 = CARTESIAN_POINT ( 'NONE',  ( 1.316288464743861212E-13, -4.616918432785521081E-15, 37.69999999999999574 ) ) ;
#218 = ADVANCED_FACE ( 'NONE', ( #156, #110 ), #102, .T. ) ;
#219 = DIRECTION ( 'NONE',  ( 3.491481338843133355E-15, -1.227517819005651059E-16, 1.000000000000000000 ) ) ;
#220 = APPROVAL_PERSON_ORGANIZATION ( #205, #95, #123 ) ;
#221 = CARTESIAN_POINT ( 'NONE',  ( -6.413731847436034514E-31, 0.0000000000000000000, -1.836965810494968570E-16 ) ) ;
#222 = DATE_TIME_ROLE ( 'creation_date' ) ;
#223 = PERSON_AND_ORGANIZATION ( #155, #26 ) ;
ENDSEC;
END-ISO-10303-21;
