ISO-10303-21;
HEADER;
FILE_DESCRIPTION (( 'STEP AP203' ),
    '1' );
FILE_NAME ('61345.step',
    '2021-11-15T14:47:07',
    ( '' ),
    ( '' ),
    'SwSTEP 2.0',
    'SolidWorks 2019',
    '' );
FILE_SCHEMA (( 'CONFIG_CONTROL_DESIGN' ));
ENDSEC;

DATA;
#1 = DIRECTION ( 'NONE',  ( 0.0000000000000000000, -1.000000000000000000, 0.0000000000000000000 ) ) ;
#2 = DIRECTION ( 'NONE',  ( 3.491481338843133355E-15, -1.243677319851284845E-16, 1.000000000000000000 ) ) ;
#3 = PLANE ( 'NONE',  #143 ) ;
#4 = DIRECTION ( 'NONE',  ( -3.491481338843133355E-15, 1.224646799147353207E-16, -1.000000000000000000 ) ) ;
#5 = SECURITY_CLASSIFICATION_LEVEL ( 'unclassified' ) ;
#6 = FACE_OUTER_BOUND ( 'NONE', #55, .T. ) ;
#7 = PERSON_AND_ORGANIZATION ( #220, #226 ) ;
#8 = CIRCLE ( 'NONE', #182, 0.2499999999999951705 ) ;
#9 =( NAMED_UNIT ( * ) SI_UNIT ( $, .STERADIAN. ) SOLID_ANGLE_UNIT ( ) );
#10 = DATE_AND_TIME ( #52, #171 ) ;
#11 = PRODUCT_RELATED_PRODUCT_CATEGORY ( 'detail', '', ( #98 ) ) ;
#12 = AXIS2_PLACEMENT_3D ( 'NONE', #167, #80, #100 ) ;
#13 = PRODUCT_DEFINITION_SHAPE ( 'NONE', 'NONE',  #177 ) ;
#14 = AXIS2_PLACEMENT_3D ( 'NONE', #23, #4, #22 ) ;
#15 = FACE_BOUND ( 'NONE', #239, .T. ) ;
#16 = LOCAL_TIME ( 15, 47, 7.000000000000000000, #158 ) ;
#17 = CARTESIAN_POINT ( 'NONE',  ( 1.316288464743860707E-13, -4.616918432785519503E-15, 37.69999999999998153 ) ) ;
#18 = ORIENTED_EDGE ( 'NONE', *, *, #163, .F. ) ;
#19 = APPROVAL ( #125, 'UNSPECIFIED' ) ;
#20 = ADVANCED_FACE ( 'NONE', ( #104, #41 ), #187, .T. ) ;
#21 = CARTESIAN_POINT ( 'NONE',  ( 1.326762908760390170E-13, 1.199999999999987521, 37.99999999999999289 ) ) ;
#22 = DIRECTION ( 'NONE',  ( 0.0000000000000000000, 1.000000000000000000, 0.0000000000000000000 ) ) ;
#23 = CARTESIAN_POINT ( 'NONE',  ( 1.326762908760390170E-13, -4.653657836759941152E-15, 37.99999999999999289 ) ) ;
#24 = CIRCLE ( 'NONE', #234, 0.2499999999999951705 ) ;
#25 = APPLICATION_PROTOCOL_DEFINITION ( 'international standard', 'config_control_design', 1994, #213 ) ;
#26 = DIRECTION ( 'NONE',  ( 1.000000000000000000, 0.0000000000000000000, 0.0000000000000000000 ) ) ;
#27 = CARTESIAN_POINT ( 'NONE',  ( 0.0000000000000000000, 0.0000000000000000000, 0.0000000000000000000 ) ) ;
#28 = EDGE_CURVE ( 'NONE', #38, #38, #24, .T. ) ;
#29 = CLOSED_SHELL ( 'NONE', ( #241, #20, #128 ) ) ;
#30 = PERSON_AND_ORGANIZATION_ROLE ( 'design_owner' ) ;
#31 = COORDINATED_UNIVERSAL_TIME_OFFSET ( 1, 0, .AHEAD. ) ;
#32 = EDGE_LOOP ( 'NONE', ( #202 ) ) ;
#33 = ORIENTED_EDGE ( 'NONE', *, *, #212, .T. ) ;
#34 = CARTESIAN_POINT ( 'NONE',  ( 7.044545740489967458E-15, -2.509290732456058734E-16, 2.017638090205031709 ) ) ;
#35 = ORIENTED_EDGE ( 'NONE', *, *, #201, .T. ) ;
#36 = CC_DESIGN_APPROVAL ( #95, ( #177 ) ) ;
#37 = ADVANCED_FACE ( 'NONE', ( #206 ), #39, .F. ) ;
#38 = VERTEX_POINT ( 'NONE', #116 ) ;
#39 = PLANE ( 'NONE',  #149 ) ;
#40 = DIRECTION ( 'NONE',  ( 3.491481338843133355E-15, -1.224646799147353207E-16, 1.000000000000000000 ) ) ;
#41 = FACE_OUTER_BOUND ( 'NONE', #127, .T. ) ;
#42 = AXIS2_PLACEMENT_3D ( 'NONE', #115, #64, #168 ) ;
#43 = MANIFOLD_SOLID_BREP ( 'Corps-Déplacer/Copier1[2]', #29 ) ;
#44 = VERTEX_POINT ( 'NONE', #121 ) ;
#45 = DIRECTION ( 'NONE',  ( -4.275831445896958607E-31, -1.000000000000000000, -1.224646799147353207E-16 ) ) ;
#46 = LOCAL_TIME ( 15, 47, 7.000000000000000000, #196 ) ;
#47 = PLANE ( 'NONE',  #48 ) ;
#48 = AXIS2_PLACEMENT_3D ( 'NONE', #173, #40, #131 ) ;
#49 = PERSON_AND_ORGANIZATION_ROLE ( 'creator' ) ;
#50 = CC_DESIGN_DATE_AND_TIME_ASSIGNMENT ( #141, #140, ( #177 ) ) ;
#51 = DIRECTION ( 'NONE',  ( -4.342276153803203868E-31, -1.000000000000000000, -1.243677319851284599E-16 ) ) ;
#52 = CALENDAR_DATE ( 2021, 15, 11 ) ;
#53 = CIRCLE ( 'NONE', #60, 1.499999999999992006 ) ;
#54 = DIRECTION ( 'NONE',  ( 0.0000000000000000000, 0.0000000000000000000, 1.000000000000000000 ) ) ;
#55 = EDGE_LOOP ( 'NONE', ( #183 ) ) ;
#56 = SHAPE_DEFINITION_REPRESENTATION ( #13, #209 ) ;
#57 = AXIS2_PLACEMENT_3D ( 'NONE', #235, #85, #175 ) ;
#58 = CC_DESIGN_DATE_AND_TIME_ASSIGNMENT ( #109, #233, ( #110 ) ) ;
#59 = CARTESIAN_POINT ( 'NONE',  ( 5.237222008264704766E-15, 1.124819836996383900E-32, 1.500000000000001332 ) ) ;
#60 = AXIS2_PLACEMENT_3D ( 'NONE', #17, #82, #156 ) ;
#61 = EDGE_LOOP ( 'NONE', ( #147 ) ) ;
#62 = DIRECTION ( 'NONE',  ( 3.491481338843133355E-15, -1.224646799147353207E-16, 1.000000000000000000 ) ) ;
#63 = EDGE_LOOP ( 'NONE', ( #33 ) ) ;
#64 = DIRECTION ( 'NONE',  ( -3.491481338843133355E-15, 1.224646799147353207E-16, -1.000000000000000000 ) ) ;
#65 = DIRECTION ( 'NONE',  ( -3.491481338843133355E-15, 1.243677319851284845E-16, -1.000000000000000000 ) ) ;
#66 = CIRCLE ( 'NONE', #240, 0.3181483474218548824 ) ;
#67 = PERSON_AND_ORGANIZATION ( #220, #226 ) ;
#68 = EDGE_LOOP ( 'NONE', ( #144 ) ) ;
#69 = APPROVAL_ROLE ( '' ) ;
#70 = APPROVAL ( #165, 'UNSPECIFIED' ) ;
#71 = EDGE_CURVE ( 'NONE', #186, #186, #243, .T. ) ;
#72 = APPLICATION_PROTOCOL_DEFINITION ( 'international standard', 'config_control_design', 1994, #103 ) ;
#73 = CC_DESIGN_APPROVAL ( #70, ( #110 ) ) ;
#74 = EDGE_LOOP ( 'NONE', ( #148 ) ) ;
#75 = PERSON_AND_ORGANIZATION ( #220, #226 ) ;
#76 = PERSON_AND_ORGANIZATION ( #220, #226 ) ;
#77 = ORIENTED_EDGE ( 'NONE', *, *, #71, .T. ) ;
#78 = ADVANCED_FACE ( 'NONE', ( #137 ), #176, .F. ) ;
#79 = APPROVAL_PERSON_ORGANIZATION ( #238, #95, #214 ) ;
#80 = DIRECTION ( 'NONE',  ( 3.491481338843133355E-15, -1.243677319851284845E-16, 1.000000000000000000 ) ) ;
#81 = APPROVAL_PERSON_ORGANIZATION ( #76, #19, #217 ) ;
#82 = DIRECTION ( 'NONE',  ( -3.491481338843133355E-15, 1.224646799147353207E-16, -1.000000000000000000 ) ) ;
#83 = DIRECTION ( 'NONE',  ( 0.0000000000000000000, -1.000000000000000000, 0.0000000000000000000 ) ) ;
#84 = CARTESIAN_POINT ( 'NONE',  ( 2.244452867314347554E-14, -7.994816112862092404E-16, 6.428368504635983527 ) ) ;
#85 = DIRECTION ( 'NONE',  ( -3.491481338843133355E-15, 1.224646799147353207E-16, -1.000000000000000000 ) ) ;
#86 = EDGE_LOOP ( 'NONE', ( #18 ) ) ;
#87 = PERSON_AND_ORGANIZATION_ROLE ( 'classification_officer' ) ;
#88 = ADVANCED_FACE ( 'NONE', ( #6, #189 ), #129, .T. ) ;
#89 = AXIS2_PLACEMENT_3D ( 'NONE', #192, #190, #230 ) ;
#90 = COORDINATED_UNIVERSAL_TIME_OFFSET ( 1, 0, .AHEAD. ) ;
#91 = APPROVAL_PERSON_ORGANIZATION ( #178, #70, #69 ) ;
#92 = CALENDAR_DATE ( 2021, 15, 11 ) ;
#93 = CC_DESIGN_PERSON_AND_ORGANIZATION_ASSIGNMENT ( #126, #87, ( #110 ) ) ;
#94 = UNCERTAINTY_MEASURE_WITH_UNIT (LENGTH_MEASURE( 1.000000000000000082E-05 ), #193, 'distance_accuracy_value', 'NONE');
#95 = APPROVAL ( #197, 'UNSPECIFIED' ) ;
#96 = EDGE_LOOP ( 'NONE', ( #219 ) ) ;
#97 = FACE_OUTER_BOUND ( 'NONE', #74, .T. ) ;
#98 = PRODUCT ( '61345', '61345', '', ( #216 ) ) ;
#99 = FACE_OUTER_BOUND ( 'NONE', #160, .T. ) ;
#100 = DIRECTION ( 'NONE',  ( -4.342276153803202116E-31, -1.000000000000000000, -1.243677319851284599E-16 ) ) ;
#101 = CARTESIAN_POINT ( 'NONE',  ( -2.171138076901573470E-31, -0.2499999999999967526, -6.218386599256341642E-17 ) ) ;
#102 = CONICAL_SURFACE ( 'NONE', #89, 2.499999999999991562, 0.2617993877991431351 ) ;
#103 = APPLICATION_CONTEXT ( 'configuration controlled 3d designs of mechanical parts and assemblies' ) ;
#104 = FACE_OUTER_BOUND ( 'NONE', #117, .T. ) ;
#105 = DIRECTION ( 'NONE',  ( -4.404759199457932435E-31, -1.000000000000000000, -1.243677319851284845E-16 ) ) ;
#106 = CC_DESIGN_APPROVAL ( #19, ( #142 ) ) ;
#107 = APPROVAL_DATE_TIME ( #10, #95 ) ;
#108 = CARTESIAN_POINT ( 'NONE',  ( -1.085569038450786516E-31, -1.897890186345673589E-32, -3.109193299628170821E-17 ) ) ;
#109 = DATE_AND_TIME ( #161, #46 ) ;
#110 = SECURITY_CLASSIFICATION ( '', '', #5 ) ;
#111 = ORIENTED_EDGE ( 'NONE', *, *, #163, .T. ) ;
#112 = CALENDAR_DATE ( 2021, 15, 11 ) ;
#113 = ADVANCED_FACE ( 'NONE', ( #15, #97 ), #102, .T. ) ;
#114 = AXIS2_PLACEMENT_3D ( 'NONE', #155, #231, #218 ) ;
#115 = CARTESIAN_POINT ( 'NONE',  ( 0.0000000000000000000, 0.0000000000000000000, 0.0000000000000000000 ) ) ;
#116 = CARTESIAN_POINT ( 'NONE',  ( 5.237222008264704766E-15, -0.2499999999999953371, 1.500000000000001332 ) ) ;
#117 = EDGE_LOOP ( 'NONE', ( #77 ) ) ;
#118 = AXIS2_PLACEMENT_3D ( 'NONE', #84, #65, #172 ) ;
#119 = ORIENTED_EDGE ( 'NONE', *, *, #28, .F. ) ;
#120 = ADVANCED_FACE ( 'NONE', ( #205, #210 ), #146, .F. ) ;
#121 = CARTESIAN_POINT ( 'NONE',  ( 1.316288464743860707E-13, 1.499999999999987566, 37.69999999999998153 ) ) ;
#122 = FACE_OUTER_BOUND ( 'NONE', #61, .T. ) ;
#123 = PERSON_AND_ORGANIZATION_ROLE ( 'design_supplier' ) ;
#124 = DIRECTION ( 'NONE',  ( 3.491481338843133355E-15, -1.243677319851284845E-16, 1.000000000000000000 ) ) ;
#125 = APPROVAL_STATUS ( 'not_yet_approved' ) ;
#126 = PERSON_AND_ORGANIZATION ( #220, #226 ) ;
#127 = EDGE_LOOP ( 'NONE', ( #119 ) ) ;
#128 = ADVANCED_FACE ( 'NONE', ( #174 ), #47, .F. ) ;
#129 = CONICAL_SURFACE ( 'NONE', #114, 1.199999999999992184, 0.7853981633974338461 ) ;
#130 = CLOSED_SHELL ( 'NONE', ( #221, #88, #78, #113, #120, #37 ) ) ;
#131 = DIRECTION ( 'NONE',  ( -4.275831445896958607E-31, -1.000000000000000000, -1.224646799147353207E-16 ) ) ;
#132 = CC_DESIGN_PERSON_AND_ORGANIZATION_ASSIGNMENT ( #138, #123, ( #142 ) ) ;
#133 = CC_DESIGN_PERSON_AND_ORGANIZATION_ASSIGNMENT ( #67, #49, ( #177 ) ) ;
#134 = CARTESIAN_POINT ( 'NONE',  ( 7.044545740489967458E-15, -0.3181483474218551599, 2.017638090205031709 ) ) ;
#135 = CARTESIAN_POINT ( 'NONE',  ( 5.237222008264704766E-15, -1.865515979776928993E-16, 1.500000000000001332 ) ) ;
#136 = AXIS2_PLACEMENT_3D ( 'NONE', #27, #54, #26 ) ;
#137 = FACE_OUTER_BOUND ( 'NONE', #86, .T. ) ;
#138 = PERSON_AND_ORGANIZATION ( #220, #226 ) ;
#139 = ORIENTED_EDGE ( 'NONE', *, *, #152, .T. ) ;
#140 = DATE_TIME_ROLE ( 'creation_date' ) ;
#141 = DATE_AND_TIME ( #92, #16 ) ;
#142 = PRODUCT_DEFINITION_FORMATION_WITH_SPECIFIED_SOURCE ( 'ANY', '', #98, .NOT_KNOWN. ) ;
#143 = AXIS2_PLACEMENT_3D ( 'NONE', #59, #62, #208 ) ;
#144 = ORIENTED_EDGE ( 'NONE', *, *, #152, .F. ) ;
#145 = APPROVAL_DATE_TIME ( #242, #70 ) ;
#146 = TOROIDAL_SURFACE ( 'NONE', #199, 2.249999999999995115, 2.000000000000000888 ) ;
#147 = ORIENTED_EDGE ( 'NONE', *, *, #28, .T. ) ;
#148 = ORIENTED_EDGE ( 'NONE', *, *, #169, .T. ) ;
#149 = AXIS2_PLACEMENT_3D ( 'NONE', #194, #191, #45 ) ;
#150 = DIRECTION ( 'NONE',  ( 3.491481338843133355E-15, -1.243677319851284845E-16, 1.000000000000000000 ) ) ;
#151 = DIRECTION ( 'NONE',  ( 3.491481338843133355E-15, -1.243677319851284845E-16, 1.000000000000000000 ) ) ;
#152 = EDGE_CURVE ( 'NONE', #228, #228, #66, .T. ) ;
#153 = DIRECTION ( 'NONE',  ( 3.491481338843133355E-15, -1.243677319851284845E-16, 1.000000000000000000 ) ) ;
#154 = VERTEX_POINT ( 'NONE', #229 ) ;
#155 = CARTESIAN_POINT ( 'NONE',  ( 1.326762908760390170E-13, -4.653657836759941152E-15, 37.99999999999999289 ) ) ;
#156 = DIRECTION ( 'NONE',  ( 0.0000000000000000000, 1.000000000000000000, 0.0000000000000000000 ) ) ;
#157 = CIRCLE ( 'NONE', #118, 1.499999999999989786 ) ;
#158 = COORDINATED_UNIVERSAL_TIME_OFFSET ( 1, 0, .AHEAD. ) ;
#159 = CC_DESIGN_SECURITY_CLASSIFICATION ( #110, ( #142 ) ) ;
#160 = EDGE_LOOP ( 'NONE', ( #35 ) ) ;
#161 = CALENDAR_DATE ( 2021, 15, 11 ) ;
#162 = AXIS2_PLACEMENT_3D ( 'NONE', #108, #124, #51 ) ;
#163 = EDGE_CURVE ( 'NONE', #188, #188, #222, .T. ) ;
#164 = DATE_AND_TIME ( #112, #237 ) ;
#165 = APPROVAL_STATUS ( 'not_yet_approved' ) ;
#166 =( GEOMETRIC_REPRESENTATION_CONTEXT ( 3 ) GLOBAL_UNCERTAINTY_ASSIGNED_CONTEXT ( ( #94 ) ) GLOBAL_UNIT_ASSIGNED_CONTEXT ( ( #193, #211, #9 ) ) REPRESENTATION_CONTEXT ( 'NONE', 'WORKASPACE' ) );
#167 = CARTESIAN_POINT ( 'NONE',  ( -6.413677916074933265E-31, 0.0000000000000000000, -1.836950363939232727E-16 ) ) ;
#168 = DIRECTION ( 'NONE',  ( 4.275831445896959482E-31, 1.000000000000000000, 1.224646799147353207E-16 ) ) ;
#169 = EDGE_CURVE ( 'NONE', #154, #154, #157, .T. ) ;
#170 = FACE_OUTER_BOUND ( 'NONE', #96, .T. ) ;
#171 = LOCAL_TIME ( 15, 47, 7.000000000000000000, #31 ) ;
#172 = DIRECTION ( 'NONE',  ( 0.0000000000000000000, -1.000000000000000000, 0.0000000000000000000 ) ) ;
#173 = CARTESIAN_POINT ( 'NONE',  ( -2.137917073001454058E-30, 7.498803648657679327E-32, -6.123237862442165323E-16 ) ) ;
#174 = FACE_OUTER_BOUND ( 'NONE', #32, .T. ) ;
#175 = DIRECTION ( 'NONE',  ( 4.275831445896958607E-31, 1.000000000000000000, 1.224646799147353207E-16 ) ) ;
#176 = PLANE ( 'NONE',  #57 ) ;
#177 = PRODUCT_DEFINITION ( 'UNKNOWN', '', #142, #223 ) ;
#178 = PERSON_AND_ORGANIZATION ( #220, #226 ) ;
#179 = CARTESIAN_POINT ( 'NONE',  ( 5.237222008264704766E-15, -0.2499999999999953371, 1.500000000000001332 ) ) ;
#180 = COORDINATED_UNIVERSAL_TIME_OFFSET ( 1, 0, .AHEAD. ) ;
#181 = ORIENTED_EDGE ( 'NONE', *, *, #212, .F. ) ;
#182 = AXIS2_PLACEMENT_3D ( 'NONE', #135, #153, #83 ) ;
#183 = ORIENTED_EDGE ( 'NONE', *, *, #201, .F. ) ;
#184 = LOCAL_TIME ( 15, 47, 7.000000000000000000, #180 ) ;
#185 = CARTESIAN_POINT ( 'NONE',  ( 5.237222008264703977E-15, 0.0000000000000000000, 1.500000000000001110 ) ) ;
#186 = VERTEX_POINT ( 'NONE', #101 ) ;
#187 = CYLINDRICAL_SURFACE ( 'NONE', #12, 0.2499999999999960032 ) ;
#188 = VERTEX_POINT ( 'NONE', #21 ) ;
#189 = FACE_BOUND ( 'NONE', #203, .T. ) ;
#190 = DIRECTION ( 'NONE',  ( 3.491481338843133355E-15, -1.243677319851284845E-16, 1.000000000000000000 ) ) ;
#191 = DIRECTION ( 'NONE',  ( 3.491481338843133355E-15, -1.224646799147353207E-16, 1.000000000000000000 ) ) ;
#192 = CARTESIAN_POINT ( 'NONE',  ( 3.547491442338500334E-14, -1.263628305876830033E-15, 10.16041931220495975 ) ) ;
#193 =( LENGTH_UNIT ( ) NAMED_UNIT ( * ) SI_UNIT ( .MILLI., .METRE. ) );
#194 = CARTESIAN_POINT ( 'NONE',  ( 5.237222008264704766E-15, 1.124819836996383900E-32, 1.500000000000001332 ) ) ;
#195 = CC_DESIGN_PERSON_AND_ORGANIZATION_ASSIGNMENT ( #7, #30, ( #98 ) ) ;
#196 = COORDINATED_UNIVERSAL_TIME_OFFSET ( 1, 0, .AHEAD. ) ;
#197 = APPROVAL_STATUS ( 'not_yet_approved' ) ;
#198 = CALENDAR_DATE ( 2021, 15, 11 ) ;
#199 = AXIS2_PLACEMENT_3D ( 'NONE', #185, #150, #105 ) ;
#200 = CC_DESIGN_PERSON_AND_ORGANIZATION_ASSIGNMENT ( #75, #232, ( #142 ) ) ;
#201 = EDGE_CURVE ( 'NONE', #44, #44, #53, .T. ) ;
#202 = ORIENTED_EDGE ( 'NONE', *, *, #71, .F. ) ;
#203 = EDGE_LOOP ( 'NONE', ( #111 ) ) ;
#204 = MANIFOLD_SOLID_BREP ( 'Corps-Déplacer/Copier1[1]', #130 ) ;
#205 = FACE_OUTER_BOUND ( 'NONE', #63, .T. ) ;
#206 = FACE_OUTER_BOUND ( 'NONE', #207, .T. ) ;
#207 = EDGE_LOOP ( 'NONE', ( #181 ) ) ;
#208 = DIRECTION ( 'NONE',  ( -4.275831445896958607E-31, -1.000000000000000000, -1.224646799147353207E-16 ) ) ;
#209 = ADVANCED_BREP_SHAPE_REPRESENTATION ( '61345', ( #204, #43, #136 ), #166 ) ;
#210 = FACE_OUTER_BOUND ( 'NONE', #68, .T. ) ;
#211 =( NAMED_UNIT ( * ) PLANE_ANGLE_UNIT ( ) SI_UNIT ( $, .RADIAN. ) );
#212 = EDGE_CURVE ( 'NONE', #215, #215, #8, .T. ) ;
#213 = APPLICATION_CONTEXT ( 'configuration controlled 3d designs of mechanical parts and assemblies' ) ;
#214 = APPROVAL_ROLE ( '' ) ;
#215 = VERTEX_POINT ( 'NONE', #179 ) ;
#216 = MECHANICAL_CONTEXT ( 'NONE', #213, 'mechanical' ) ;
#217 = APPROVAL_ROLE ( '' ) ;
#218 = DIRECTION ( 'NONE',  ( 0.0000000000000000000, 1.000000000000000000, 0.0000000000000000000 ) ) ;
#219 = ORIENTED_EDGE ( 'NONE', *, *, #169, .F. ) ;
#220 = PERSON ( 'UNSPECIFIED', 'UNSPECIFIED', 'UNSPECIFIED', ('UNSPECIFIED'), ('UNSPECIFIED'), ('UNSPECIFIED') ) ;
#221 = ADVANCED_FACE ( 'NONE', ( #99, #170 ), #225, .T. ) ;
#222 = CIRCLE ( 'NONE', #14, 1.199999999999992184 ) ;
#223 = DESIGN_CONTEXT ( 'detailed design', #103, 'design' ) ;
#224 = CARTESIAN_POINT ( 'NONE',  ( 5.237222008264704766E-15, -1.865515979776928993E-16, 1.500000000000001332 ) ) ;
#225 = CYLINDRICAL_SURFACE ( 'NONE', #42, 1.499999999999989786 ) ;
#226 = ORGANIZATION ( 'UNSPECIFIED', 'UNSPECIFIED', '' ) ;
#227 = DIRECTION ( 'NONE',  ( 0.0000000000000000000, -1.000000000000000000, 0.0000000000000000000 ) ) ;
#228 = VERTEX_POINT ( 'NONE', #134 ) ;
#229 = CARTESIAN_POINT ( 'NONE',  ( 2.244452867314347554E-14, -1.499999999999990674, 6.428368504635983527 ) ) ;
#230 = DIRECTION ( 'NONE',  ( 0.0000000000000000000, -1.000000000000000000, 0.0000000000000000000 ) ) ;
#231 = DIRECTION ( 'NONE',  ( -3.491481338843133355E-15, 1.224646799147353207E-16, -1.000000000000000000 ) ) ;
#232 = PERSON_AND_ORGANIZATION_ROLE ( 'creator' ) ;
#233 = DATE_TIME_ROLE ( 'classification_date' ) ;
#234 = AXIS2_PLACEMENT_3D ( 'NONE', #224, #151, #227 ) ;
#235 = CARTESIAN_POINT ( 'NONE',  ( 1.326762908760390170E-13, 8.998558695971017012E-33, 37.99999999999999289 ) ) ;
#236 = APPROVAL_DATE_TIME ( #164, #19 ) ;
#237 = LOCAL_TIME ( 15, 47, 7.000000000000000000, #90 ) ;
#238 = PERSON_AND_ORGANIZATION ( #220, #226 ) ;
#239 = EDGE_LOOP ( 'NONE', ( #139 ) ) ;
#240 = AXIS2_PLACEMENT_3D ( 'NONE', #34, #2, #1 ) ;
#241 = ADVANCED_FACE ( 'NONE', ( #122 ), #3, .T. ) ;
#242 = DATE_AND_TIME ( #198, #184 ) ;
#243 = CIRCLE ( 'NONE', #162, 0.2499999999999967526 ) ;
ENDSEC;
END-ISO-10303-21;
