ISO-10303-21;
HEADER;
FILE_DESCRIPTION (( 'STEP AP203' ),
    '1' );
FILE_NAME ('613.step',
    '2021-12-06T12:59:49',
    ( '' ),
    ( '' ),
    'SwSTEP 2.0',
    'SolidWorks 2019',
    '' );
FILE_SCHEMA (( 'CONFIG_CONTROL_DESIGN' ));
ENDSEC;

DATA;
#1 = DIRECTION ( 'NONE',  ( -3.491481338843133355E-15, 7.347880794884117764E-17, -1.000000000000000000 ) ) ;
#2 =( NAMED_UNIT ( * ) SI_UNIT ( $, .STERADIAN. ) SOLID_ANGLE_UNIT ( ) );
#3 = DIRECTION ( 'NONE',  ( 3.491481338843133355E-15, -7.347880794884117764E-17, 1.000000000000000000 ) ) ;
#4 = PERSON_AND_ORGANIZATION ( #6, #106 ) ;
#5 = CALENDAR_DATE ( 2021, 6, 12 ) ;
#6 = PERSON ( 'UNSPECIFIED', 'UNSPECIFIED', 'UNSPECIFIED', ('UNSPECIFIED'), ('UNSPECIFIED'), ('UNSPECIFIED') ) ;
#7 = DATE_AND_TIME ( #9, #67 ) ;
#8 = CC_DESIGN_PERSON_AND_ORGANIZATION_ASSIGNMENT ( #84, #111, ( #36 ) ) ;
#9 = CALENDAR_DATE ( 2021, 6, 12 ) ;
#10 = DESIGN_CONTEXT ( 'detailed design', #74, 'design' ) ;
#11 = DIRECTION ( 'NONE',  ( 2.565498867538174463E-31, 1.000000000000000000, 7.347880794884117764E-17 ) ) ;
#12 = DIRECTION ( 'NONE',  ( -3.491481338843133355E-15, 7.347880794884117764E-17, -1.000000000000000000 ) ) ;
#13 = ORIENTED_EDGE ( 'NONE', *, *, #52, .F. ) ;
#14 =( GEOMETRIC_REPRESENTATION_CONTEXT ( 3 ) GLOBAL_UNCERTAINTY_ASSIGNED_CONTEXT ( ( #141 ) ) GLOBAL_UNIT_ASSIGNED_CONTEXT ( ( #134, #137, #2 ) ) REPRESENTATION_CONTEXT ( 'NONE', 'WORKASPACE' ) );
#15 = FACE_BOUND ( 'NONE', #25, .T. ) ;
#16 = CARTESIAN_POINT ( 'NONE',  ( 1.745740669421566678E-15, 2.500000000000002220, 0.5000000000000000000 ) ) ;
#17 = DIRECTION ( 'NONE',  ( 2.565498867538174901E-31, 1.000000000000000000, 7.347880794884118997E-17 ) ) ;
#18 = DIRECTION ( 'NONE',  ( 2.565498867538174463E-31, 1.000000000000000000, 7.347880794884116531E-17 ) ) ;
#19 = FACE_OUTER_BOUND ( 'NONE', #155, .T. ) ;
#20 = PERSON_AND_ORGANIZATION ( #6, #106 ) ;
#21 = APPROVAL_DATE_TIME ( #124, #59 ) ;
#22 = CLOSED_SHELL ( 'NONE', ( #27, #125, #99, #135 ) ) ;
#23 = ORIENTED_EDGE ( 'NONE', *, *, #95, .F. ) ;
#24 = APPROVAL ( #41, 'UNSPECIFIED' ) ;
#25 = EDGE_LOOP ( 'NONE', ( #47 ) ) ;
#26 = AXIS2_PLACEMENT_3D ( 'NONE', #158, #88, #121 ) ;
#27 = ADVANCED_FACE ( 'NONE', ( #86, #15 ), #62, .T. ) ;
#28 = FACE_OUTER_BOUND ( 'NONE', #48, .T. ) ;
#29 = PRODUCT ( '613', '613', '', ( #133 ) ) ;
#30 = AXIS2_PLACEMENT_3D ( 'NONE', #38, #3, #53 ) ;
#31 = PERSON_AND_ORGANIZATION_ROLE ( 'design_owner' ) ;
#32 = FACE_OUTER_BOUND ( 'NONE', #73, .T. ) ;
#33 = COORDINATED_UNIVERSAL_TIME_OFFSET ( 1, 0, .AHEAD. ) ;
#34 = LOCAL_TIME ( 13, 59, 49.00000000000000000, #69 ) ;
#35 = APPROVAL_DATE_TIME ( #140, #24 ) ;
#36 = PRODUCT_DEFINITION ( 'UNKNOWN', '', #56, #10 ) ;
#37 = EDGE_LOOP ( 'NONE', ( #144 ) ) ;
#38 = CARTESIAN_POINT ( 'NONE',  ( 1.745740669421565889E-15, 2.500000000000002220, 0.4999999999999997780 ) ) ;
#39 = DIRECTION ( 'NONE',  ( -3.491481338843133355E-15, 7.347880794884117764E-17, -1.000000000000000000 ) ) ;
#40 = FACE_OUTER_BOUND ( 'NONE', #154, .T. ) ;
#41 = APPROVAL_STATUS ( 'not_yet_approved' ) ;
#42 = CIRCLE ( 'NONE', #145, 7.500000000000000000 ) ;
#43 = COORDINATED_UNIVERSAL_TIME_OFFSET ( 1, 0, .AHEAD. ) ;
#44 = PERSON_AND_ORGANIZATION_ROLE ( 'creator' ) ;
#45 = MANIFOLD_SOLID_BREP ( 'Corps-Déplacer/Copier1', #22 ) ;
#46 = DATE_TIME_ROLE ( 'creation_date' ) ;
#47 = ORIENTED_EDGE ( 'NONE', *, *, #63, .F. ) ;
#48 = EDGE_LOOP ( 'NONE', ( #127 ) ) ;
#49 = LOCAL_TIME ( 13, 59, 49.00000000000000000, #83 ) ;
#50 = PERSON_AND_ORGANIZATION ( #6, #106 ) ;
#51 = CARTESIAN_POINT ( 'NONE',  ( 0.0000000000000000000, 0.0000000000000000000, 0.0000000000000000000 ) ) ;
#52 = EDGE_CURVE ( 'NONE', #132, #132, #159, .T. ) ;
#53 = DIRECTION ( 'NONE',  ( -2.565498867538174463E-31, -1.000000000000000000, -7.347880794884117764E-17 ) ) ;
#54 = PERSON_AND_ORGANIZATION ( #6, #106 ) ;
#55 = PERSON_AND_ORGANIZATION_ROLE ( 'design_supplier' ) ;
#56 = PRODUCT_DEFINITION_FORMATION_WITH_SPECIFIED_SOURCE ( 'ANY', '', #29, .NOT_KNOWN. ) ;
#57 = EDGE_CURVE ( 'NONE', #160, #160, #101, .T. ) ;
#58 = CARTESIAN_POINT ( 'NONE',  ( 1.745740669421565889E-15, -3.673940397442057649E-17, 0.4999999999999997780 ) ) ;
#59 = APPROVAL ( #123, 'UNSPECIFIED' ) ;
#60 = CARTESIAN_POINT ( 'NONE',  ( -6.413747168845436158E-31, 2.500000000000000444, -1.836970198721029194E-16 ) ) ;
#61 = EDGE_LOOP ( 'NONE', ( #75 ) ) ;
#62 = PLANE ( 'NONE',  #96 ) ;
#63 = EDGE_CURVE ( 'NONE', #117, #117, #131, .T. ) ;
#64 = CYLINDRICAL_SURFACE ( 'NONE', #65, 2.500000000000001332 ) ;
#65 = AXIS2_PLACEMENT_3D ( 'NONE', #51, #79, #148 ) ;
#66 = FACE_BOUND ( 'NONE', #156, .T. ) ;
#67 = LOCAL_TIME ( 13, 59, 49.00000000000000000, #43 ) ;
#68 = APPROVAL_PERSON_ORGANIZATION ( #4, #59, #138 ) ;
#69 = COORDINATED_UNIVERSAL_TIME_OFFSET ( 1, 0, .AHEAD. ) ;
#70 = DATE_AND_TIME ( #5, #136 ) ;
#71 = CC_DESIGN_PERSON_AND_ORGANIZATION_ASSIGNMENT ( #122, #44, ( #56 ) ) ;
#72 = SECURITY_CLASSIFICATION_LEVEL ( 'unclassified' ) ;
#73 = EDGE_LOOP ( 'NONE', ( #100 ) ) ;
#74 = APPLICATION_CONTEXT ( 'configuration controlled 3d designs of mechanical parts and assemblies' ) ;
#75 = ORIENTED_EDGE ( 'NONE', *, *, #57, .T. ) ;
#76 = CARTESIAN_POINT ( 'NONE',  ( 1.745740669421564903E-15, -3.673940397442055184E-17, 0.4999999999999994449 ) ) ;
#77 = PRODUCT_DEFINITION_SHAPE ( 'NONE', 'NONE',  #36 ) ;
#78 = APPLICATION_PROTOCOL_DEFINITION ( 'international standard', 'config_control_design', 1994, #74 ) ;
#79 = DIRECTION ( 'NONE',  ( -3.491481338843133355E-15, 7.347880794884117764E-17, -1.000000000000000000 ) ) ;
#80 = PERSON_AND_ORGANIZATION ( #6, #106 ) ;
#81 = COORDINATED_UNIVERSAL_TIME_OFFSET ( 1, 0, .AHEAD. ) ;
#82 = AXIS2_PLACEMENT_3D ( 'NONE', #107, #120, #18 ) ;
#83 = COORDINATED_UNIVERSAL_TIME_OFFSET ( 1, 0, .AHEAD. ) ;
#84 = PERSON_AND_ORGANIZATION ( #6, #106 ) ;
#85 = ADVANCED_BREP_SHAPE_REPRESENTATION ( '613', ( #45, #26 ), #14 ) ;
#86 = FACE_OUTER_BOUND ( 'NONE', #61, .T. ) ;
#87 = SECURITY_CLASSIFICATION ( '', '', #72 ) ;
#88 = DIRECTION ( 'NONE',  ( 0.0000000000000000000, 0.0000000000000000000, 1.000000000000000000 ) ) ;
#89 = CYLINDRICAL_SURFACE ( 'NONE', #82, 7.500000000000000000 ) ;
#90 = CC_DESIGN_DATE_AND_TIME_ASSIGNMENT ( #70, #153, ( #87 ) ) ;
#91 = CARTESIAN_POINT ( 'NONE',  ( 0.0000000000000000000, 7.500000000000000000, 0.0000000000000000000 ) ) ;
#92 = PLANE ( 'NONE',  #30 ) ;
#93 = AXIS2_PLACEMENT_3D ( 'NONE', #58, #112, #146 ) ;
#94 = DATE_AND_TIME ( #139, #110 ) ;
#95 = EDGE_CURVE ( 'NONE', #105, #105, #42, .T. ) ;
#96 = AXIS2_PLACEMENT_3D ( 'NONE', #60, #98, #11 ) ;
#97 = AXIS2_PLACEMENT_3D ( 'NONE', #126, #12, #113 ) ;
#98 = DIRECTION ( 'NONE',  ( -3.491481338843133355E-15, 7.347880794884117764E-17, -1.000000000000000000 ) ) ;
#99 = ADVANCED_FACE ( 'NONE', ( #66, #40 ), #92, .T. ) ;
#100 = ORIENTED_EDGE ( 'NONE', *, *, #63, .T. ) ;
#101 = CIRCLE ( 'NONE', #97, 7.500000000000000000 ) ;
#102 = ORIENTED_EDGE ( 'NONE', *, *, #52, .T. ) ;
#103 = APPROVAL_ROLE ( '' ) ;
#104 = CC_DESIGN_PERSON_AND_ORGANIZATION_ASSIGNMENT ( #20, #166, ( #87 ) ) ;
#105 = VERTEX_POINT ( 'NONE', #116 ) ;
#106 = ORGANIZATION ( 'UNSPECIFIED', 'UNSPECIFIED', '' ) ;
#107 = CARTESIAN_POINT ( 'NONE',  ( 0.0000000000000000000, 0.0000000000000000000, 0.0000000000000000000 ) ) ;
#108 = PRODUCT_RELATED_PRODUCT_CATEGORY ( 'detail', '', ( #29 ) ) ;
#109 = APPROVAL_STATUS ( 'not_yet_approved' ) ;
#110 = LOCAL_TIME ( 13, 59, 49.00000000000000000, #33 ) ;
#111 = PERSON_AND_ORGANIZATION_ROLE ( 'creator' ) ;
#112 = DIRECTION ( 'NONE',  ( -3.491481338843133355E-15, 7.347880794884117764E-17, -1.000000000000000000 ) ) ;
#113 = DIRECTION ( 'NONE',  ( 2.565498867538174463E-31, 1.000000000000000000, 7.347880794884116531E-17 ) ) ;
#114 = AXIS2_PLACEMENT_3D ( 'NONE', #168, #39, #17 ) ;
#115 = CC_DESIGN_DATE_AND_TIME_ASSIGNMENT ( #94, #46, ( #36 ) ) ;
#116 = CARTESIAN_POINT ( 'NONE',  ( 1.745740669421566678E-15, 7.500000000000000000, 0.5000000000000000000 ) ) ;
#117 = VERTEX_POINT ( 'NONE', #118 ) ;
#118 = CARTESIAN_POINT ( 'NONE',  ( -8.552847072295026068E-47, 2.500000000000000444, 0.0000000000000000000 ) ) ;
#119 = APPROVAL_PERSON_ORGANIZATION ( #80, #165, #163 ) ;
#120 = DIRECTION ( 'NONE',  ( -3.491481338843133355E-15, 7.347880794884117764E-17, -1.000000000000000000 ) ) ;
#121 = DIRECTION ( 'NONE',  ( 1.000000000000000000, 0.0000000000000000000, 0.0000000000000000000 ) ) ;
#122 = PERSON_AND_ORGANIZATION ( #6, #106 ) ;
#123 = APPROVAL_STATUS ( 'not_yet_approved' ) ;
#124 = DATE_AND_TIME ( #152, #49 ) ;
#125 = ADVANCED_FACE ( 'NONE', ( #150, #28 ), #89, .T. ) ;
#126 = CARTESIAN_POINT ( 'NONE',  ( -1.924124150653630935E-30, 4.049351413187013352E-32, -5.510910596163087583E-16 ) ) ;
#127 = ORIENTED_EDGE ( 'NONE', *, *, #57, .F. ) ;
#128 = CC_DESIGN_APPROVAL ( #24, ( #36 ) ) ;
#129 = CC_DESIGN_APPROVAL ( #59, ( #87 ) ) ;
#130 = DIRECTION ( 'NONE',  ( 2.567906592516314325E-31, 1.000000000000000000, 7.228014483236695816E-17 ) ) ;
#131 = CIRCLE ( 'NONE', #114, 2.500000000000000444 ) ;
#132 = VERTEX_POINT ( 'NONE', #16 ) ;
#133 = MECHANICAL_CONTEXT ( 'NONE', #157, 'mechanical' ) ;
#134 =( LENGTH_UNIT ( ) NAMED_UNIT ( * ) SI_UNIT ( .MILLI., .METRE. ) );
#135 = ADVANCED_FACE ( 'NONE', ( #32, #19 ), #64, .F. ) ;
#136 = LOCAL_TIME ( 13, 59, 49.00000000000000000, #81 ) ;
#137 =( NAMED_UNIT ( * ) PLANE_ANGLE_UNIT ( ) SI_UNIT ( $, .RADIAN. ) );
#138 = APPROVAL_ROLE ( '' ) ;
#139 = CALENDAR_DATE ( 2021, 6, 12 ) ;
#140 = DATE_AND_TIME ( #147, #34 ) ;
#141 = UNCERTAINTY_MEASURE_WITH_UNIT (LENGTH_MEASURE( 1.000000000000000082E-05 ), #134, 'distance_accuracy_value', 'NONE');
#142 = APPROVAL_DATE_TIME ( #7, #165 ) ;
#143 = CC_DESIGN_PERSON_AND_ORGANIZATION_ASSIGNMENT ( #54, #55, ( #56 ) ) ;
#144 = ORIENTED_EDGE ( 'NONE', *, *, #95, .T. ) ;
#145 = AXIS2_PLACEMENT_3D ( 'NONE', #76, #1, #130 ) ;
#146 = DIRECTION ( 'NONE',  ( 3.081487911019574737E-31, 1.000000000000000000, 8.673617379884028076E-17 ) ) ;
#147 = CALENDAR_DATE ( 2021, 6, 12 ) ;
#148 = DIRECTION ( 'NONE',  ( 2.565498867538174463E-31, 1.000000000000000000, 7.347880794884117764E-17 ) ) ;
#149 = APPLICATION_PROTOCOL_DEFINITION ( 'international standard', 'config_control_design', 1994, #157 ) ;
#150 = FACE_OUTER_BOUND ( 'NONE', #37, .T. ) ;
#151 = CC_DESIGN_SECURITY_CLASSIFICATION ( #87, ( #56 ) ) ;
#152 = CALENDAR_DATE ( 2021, 6, 12 ) ;
#153 = DATE_TIME_ROLE ( 'classification_date' ) ;
#154 = EDGE_LOOP ( 'NONE', ( #23 ) ) ;
#155 = EDGE_LOOP ( 'NONE', ( #13 ) ) ;
#156 = EDGE_LOOP ( 'NONE', ( #102 ) ) ;
#157 = APPLICATION_CONTEXT ( 'configuration controlled 3d designs of mechanical parts and assemblies' ) ;
#158 = CARTESIAN_POINT ( 'NONE',  ( 0.0000000000000000000, 0.0000000000000000000, 0.0000000000000000000 ) ) ;
#159 = CIRCLE ( 'NONE', #93, 2.500000000000002220 ) ;
#160 = VERTEX_POINT ( 'NONE', #91 ) ;
#161 = PERSON_AND_ORGANIZATION ( #6, #106 ) ;
#162 = APPROVAL_PERSON_ORGANIZATION ( #161, #24, #103 ) ;
#163 = APPROVAL_ROLE ( '' ) ;
#164 = SHAPE_DEFINITION_REPRESENTATION ( #77, #85 ) ;
#165 = APPROVAL ( #109, 'UNSPECIFIED' ) ;
#166 = PERSON_AND_ORGANIZATION_ROLE ( 'classification_officer' ) ;
#167 = CC_DESIGN_APPROVAL ( #165, ( #56 ) ) ;
#168 = CARTESIAN_POINT ( 'NONE',  ( -6.413747168845438786E-31, 1.349783804395671573E-32, -1.836970198721029934E-16 ) ) ;
#169 = CC_DESIGN_PERSON_AND_ORGANIZATION_ASSIGNMENT ( #50, #31, ( #29 ) ) ;
ENDSEC;
END-ISO-10303-21;
