ISO-10303-21;
HEADER;
FILE_DESCRIPTION (( 'STEP AP203' ),
    '1' );
FILE_NAME ('61280.step',
    '2021-09-21T07:46:54',
    ( '' ),
    ( '' ),
    'SwSTEP 2.0',
    'SolidWorks 2019',
    '' );
FILE_SCHEMA (( 'CONFIG_CONTROL_DESIGN' ));
ENDSEC;

DATA;
#1 = DATE_AND_TIME ( #108, #17 ) ;
#2 = CONICAL_SURFACE ( 'NONE', #137, 1.999999999999989120, 0.7853981633974426169 ) ;
#3 = CARTESIAN_POINT ( 'NONE',  ( 6.982962677686308520E-15, 1.999999999999988676, 2.000000000000011990 ) ) ;
#4 = SHAPE_DEFINITION_REPRESENTATION ( #199, #139 ) ;
#5 = DIRECTION ( 'NONE',  ( 3.491481338843133355E-15, -1.224646799147353454E-16, 1.000000000000000000 ) ) ;
#6 = DIRECTION ( 'NONE',  ( -7.703719777548985451E-31, -1.000000000000000000, -2.168404344971020701E-16 ) ) ;
#7 = AXIS2_PLACEMENT_3D ( 'NONE', #284, #266, #203 ) ;
#8 = ADVANCED_FACE ( 'NONE', ( #146 ), #76, .T. ) ;
#9 = PERSON_AND_ORGANIZATION ( #43, #270 ) ;
#10 = VERTEX_POINT ( 'NONE', #3 ) ;
#11 = VECTOR ( 'NONE', #267, 1000.000000000000114 ) ;
#12 = VERTEX_POINT ( 'NONE', #165 ) ;
#13 = APPLICATION_CONTEXT ( 'configuration controlled 3d designs of mechanical parts and assemblies' ) ;
#14 = ORIENTED_EDGE ( 'NONE', *, *, #20, .T. ) ;
#15 = EDGE_LOOP ( 'NONE', ( #213, #100 ) ) ;
#16 = ORIENTED_EDGE ( 'NONE', *, *, #236, .F. ) ;
#17 = LOCAL_TIME ( 9, 46, 54.00000000000000000, #22 ) ;
#18 = FACE_OUTER_BOUND ( 'NONE', #30, .T. ) ;
#19 = CARTESIAN_POINT ( 'NONE',  ( 9.032514790198227300E-14, -1.999999999999989564, 2.000000000000011102 ) ) ;
#20 = EDGE_CURVE ( 'NONE', #201, #148, #188, .T. ) ;
#21 = DIRECTION ( 'NONE',  ( -3.491481338843133355E-15, 1.224646799147353454E-16, -1.000000000000000000 ) ) ;
#22 = COORDINATED_UNIVERSAL_TIME_OFFSET ( 1, 0, .AHEAD. ) ;
#23 = CC_DESIGN_APPROVAL ( #121, ( #53 ) ) ;
#24 = FACE_OUTER_BOUND ( 'NONE', #31, .T. ) ;
#25 = SECURITY_CLASSIFICATION_LEVEL ( 'unclassified' ) ;
#26 = DIRECTION ( 'NONE',  ( 3.491481338843133355E-15, -1.224646799147353454E-16, 1.000000000000000000 ) ) ;
#27 = CALENDAR_DATE ( 2021, 21, 9 ) ;
#28 = ADVANCED_FACE ( 'NONE', ( #166 ), #104, .T. ) ;
#29 = APPROVAL_STATUS ( 'not_yet_approved' ) ;
#30 = EDGE_LOOP ( 'NONE', ( #54, #14, #149 ) ) ;
#31 = EDGE_LOOP ( 'NONE', ( #56, #170, #119 ) ) ;
#32 = ORIENTED_EDGE ( 'NONE', *, *, #256, .T. ) ;
#33 = ORIENTED_EDGE ( 'NONE', *, *, #268, .T. ) ;
#34 = CARTESIAN_POINT ( 'NONE',  ( 6.982962677686326664E-15, 6.523246635048487142E-31, 2.000000000000017319 ) ) ;
#35 = AXIS2_PLACEMENT_3D ( 'NONE', #285, #228, #271 ) ;
#36 = DIRECTION ( 'NONE',  ( -3.491481338843133355E-15, 1.224646799147353454E-16, -1.000000000000000000 ) ) ;
#37 = CC_DESIGN_DATE_AND_TIME_ASSIGNMENT ( #91, #69, ( #84 ) ) ;
#38 = DIRECTION ( 'NONE',  ( -3.491481338843133355E-15, 1.224646799147353454E-16, -1.000000000000000000 ) ) ;
#39 = AXIS2_PLACEMENT_3D ( 'NONE', #220, #102, #101 ) ;
#40 = APPROVAL_PERSON_ORGANIZATION ( #172, #221, #229 ) ;
#41 = APPROVAL_STATUS ( 'not_yet_approved' ) ;
#42 = MANIFOLD_SOLID_BREP ( 'Corps-Déplacer/Copier1[2]', #195 ) ;
#43 = PERSON ( 'UNSPECIFIED', 'UNSPECIFIED', 'UNSPECIFIED', ('UNSPECIFIED'), ('UNSPECIFIED'), ('UNSPECIFIED') ) ;
#44 = LINE ( 'NONE', #179, #262 ) ;
#45 = CARTESIAN_POINT ( 'NONE',  ( 1.745740669421566678E-13, -6.123233995736767663E-15, 50.00000000000000000 ) ) ;
#46 = CARTESIAN_POINT ( 'NONE',  ( 6.982962677686305365E-15, -1.999999999999989564, 2.000000000000011102 ) ) ;
#47 = CALENDAR_DATE ( 2021, 21, 9 ) ;
#48 = CLOSED_SHELL ( 'NONE', ( #107, #8, #153, #28, #255, #93 ) ) ;
#49 = PLANE ( 'NONE',  #78 ) ;
#50 = DATE_TIME_ROLE ( 'classification_date' ) ;
#51 = EDGE_CURVE ( 'NONE', #77, #10, #114, .T. ) ;
#52 = PERSON_AND_ORGANIZATION_ROLE ( 'design_supplier' ) ;
#53 = PRODUCT_DEFINITION_FORMATION_WITH_SPECIFIED_SOURCE ( 'ANY', '', #127, .NOT_KNOWN. ) ;
#54 = ORIENTED_EDGE ( 'NONE', *, *, #276, .F. ) ;
#55 = ORIENTED_EDGE ( 'NONE', *, *, #244, .F. ) ;
#56 = ORIENTED_EDGE ( 'NONE', *, *, #20, .F. ) ;
#57 = DIRECTION ( 'NONE',  ( -2.382254525458707609E-15, -0.7071067811865497932, -0.7071067811865453523 ) ) ;
#58 = DIRECTION ( 'NONE',  ( -3.491481338843133355E-15, 1.224646799147353454E-16, -1.000000000000000000 ) ) ;
#59 = AXIS2_PLACEMENT_3D ( 'NONE', #173, #83, #113 ) ;
#60 = LOCAL_TIME ( 9, 46, 54.00000000000000000, #277 ) ;
#61 = CARTESIAN_POINT ( 'NONE',  ( 1.745740669421566678E-13, -6.123233995736767663E-15, 50.00000000000000000 ) ) ;
#62 = CARTESIAN_POINT ( 'NONE',  ( 0.0000000000000000000, 0.0000000000000000000, 0.0000000000000000000 ) ) ;
#63 = CARTESIAN_POINT ( 'NONE',  ( 1.740962070982345820E-13, -1.600000000000001643, 50.00000000000000000 ) ) ;
#64 =( NAMED_UNIT ( * ) PLANE_ANGLE_UNIT ( ) SI_UNIT ( $, .RADIAN. ) );
#65 =( GEOMETRIC_REPRESENTATION_CONTEXT ( 3 ) GLOBAL_UNCERTAINTY_ASSIGNED_CONTEXT ( ( #155 ) ) GLOBAL_UNIT_ASSIGNED_CONTEXT ( ( #109, #64, #82 ) ) REPRESENTATION_CONTEXT ( 'NONE', 'WORKASPACE' ) );
#66 = EDGE_CURVE ( 'NONE', #96, #279, #214, .T. ) ;
#67 = DIRECTION ( 'NONE',  ( -3.491481338843133355E-15, 1.224646799147353454E-16, -1.000000000000000000 ) ) ;
#68 = CARTESIAN_POINT ( 'NONE',  ( 7.227892037515776450E-15, 1.999999999999988676, 2.000000000000011990 ) ) ;
#69 = DATE_TIME_ROLE ( 'creation_date' ) ;
#70 = CC_DESIGN_PERSON_AND_ORGANIZATION_ASSIGNMENT ( #9, #52, ( #53 ) ) ;
#71 = LOCAL_TIME ( 9, 46, 54.00000000000000000, #211 ) ;
#72 = DIRECTION ( 'NONE',  ( -3.491481338843133355E-15, 1.224646799147353454E-16, -1.000000000000000000 ) ) ;
#73 = PERSON_AND_ORGANIZATION_ROLE ( 'creator' ) ;
#74 = ORIENTED_EDGE ( 'NONE', *, *, #249, .F. ) ;
#75 = APPROVAL_PERSON_ORGANIZATION ( #169, #121, #192 ) ;
#76 = CYLINDRICAL_SURFACE ( 'NONE', #59, 1.999999999999992228 ) ;
#77 = VERTEX_POINT ( 'NONE', #19 ) ;
#78 = AXIS2_PLACEMENT_3D ( 'NONE', #138, #26, #80 ) ;
#79 = ORIENTED_EDGE ( 'NONE', *, *, #66, .F. ) ;
#80 = DIRECTION ( 'NONE',  ( -4.275831445896959482E-31, -1.000000000000000000, -1.224646799147353454E-16 ) ) ;
#81 = DIRECTION ( 'NONE',  ( 2.555445736705828995E-15, 0.7071067811865434649, 0.7071067811865516806 ) ) ;
#82 =( NAMED_UNIT ( * ) SI_UNIT ( $, .STERADIAN. ) SOLID_ANGLE_UNIT ( ) );
#83 = DIRECTION ( 'NONE',  ( -3.491481338843133355E-15, 1.224646799147353454E-16, -1.000000000000000000 ) ) ;
#84 = PRODUCT_DEFINITION ( 'UNKNOWN', '', #53, #226 ) ;
#85 = CIRCLE ( 'NONE', #90, 1.599999999999995426 ) ;
#86 = APPROVAL_ROLE ( '' ) ;
#87 = DIRECTION ( 'NONE',  ( -7.703719777548985451E-31, -1.000000000000000000, -2.168404344971020701E-16 ) ) ;
#88 = CARTESIAN_POINT ( 'NONE',  ( 0.0000000000000000000, 0.0000000000000000000, 0.0000000000000000000 ) ) ;
#89 = AXIS2_PLACEMENT_3D ( 'NONE', #158, #204, #246 ) ;
#90 = AXIS2_PLACEMENT_3D ( 'NONE', #45, #106, #183 ) ;
#91 = DATE_AND_TIME ( #27, #186 ) ;
#92 = CC_DESIGN_PERSON_AND_ORGANIZATION_ASSIGNMENT ( #233, #73, ( #53 ) ) ;
#93 = ADVANCED_FACE ( 'NONE', ( #129 ), #248, .F. ) ;
#94 = CIRCLE ( 'NONE', #235, 1.999999999999995781 ) ;
#95 = VERTEX_POINT ( 'NONE', #46 ) ;
#96 = VERTEX_POINT ( 'NONE', #182 ) ;
#97 = ORIENTED_EDGE ( 'NONE', *, *, #117, .F. ) ;
#98 = VECTOR ( 'NONE', #81, 999.9999999999998863 ) ;
#99 = CC_DESIGN_SECURITY_CLASSIFICATION ( #200, ( #53 ) ) ;
#100 = ORIENTED_EDGE ( 'NONE', *, *, #51, .T. ) ;
#101 = DIRECTION ( 'NONE',  ( 7.703719777548985451E-31, 1.000000000000000000, 2.168404344971020701E-16 ) ) ;
#102 = DIRECTION ( 'NONE',  ( -3.491481338843133355E-15, 1.224646799147353454E-16, -1.000000000000000000 ) ) ;
#103 = CARTESIAN_POINT ( 'NONE',  ( 1.745740669421566678E-13, 1.599999999999989431, 50.00000000000000000 ) ) ;
#104 = CYLINDRICAL_SURFACE ( 'NONE', #252, 1.999999999999992228 ) ;
#105 = AXIS2_PLACEMENT_3D ( 'NONE', #157, #264, #242 ) ;
#106 = DIRECTION ( 'NONE',  ( -3.491481338843133355E-15, 1.224646799147353454E-16, -1.000000000000000000 ) ) ;
#107 = ADVANCED_FACE ( 'NONE', ( #159 ), #257, .T. ) ;
#108 = CALENDAR_DATE ( 2021, 21, 9 ) ;
#109 =( LENGTH_UNIT ( ) NAMED_UNIT ( * ) SI_UNIT ( .MILLI., .METRE. ) );
#110 = AXIS2_PLACEMENT_3D ( 'NONE', #34, #128, #219 ) ;
#111 = CARTESIAN_POINT ( 'NONE',  ( 6.982962677686306942E-15, -2.449293598294721205E-16, 2.000000000000011546 ) ) ;
#112 = CC_DESIGN_PERSON_AND_ORGANIZATION_ASSIGNMENT ( #208, #253, ( #84 ) ) ;
#113 = DIRECTION ( 'NONE',  ( 4.275831445896959482E-31, 1.000000000000000000, 1.224646799147353454E-16 ) ) ;
#114 = CIRCLE ( 'NONE', #7, 1.999999999999989120 ) ;
#115 = PERSON_AND_ORGANIZATION_ROLE ( 'classification_officer' ) ;
#116 = EDGE_CURVE ( 'NONE', #148, #95, #286, .T. ) ;
#117 = EDGE_CURVE ( 'NONE', #95, #148, #167, .T. ) ;
#118 = CALENDAR_DATE ( 2021, 21, 9 ) ;
#119 = ORIENTED_EDGE ( 'NONE', *, *, #117, .T. ) ;
#120 = EDGE_LOOP ( 'NONE', ( #97, #152 ) ) ;
#121 = APPROVAL ( #193, 'UNSPECIFIED' ) ;
#122 = EDGE_CURVE ( 'NONE', #12, #77, #131, .T. ) ;
#123 = EDGE_LOOP ( 'NONE', ( #33, #234, #74, #16 ) ) ;
#124 = ORIENTED_EDGE ( 'NONE', *, *, #268, .F. ) ;
#125 = EDGE_LOOP ( 'NONE', ( #280, #258, #124, #151 ) ) ;
#126 = CC_DESIGN_APPROVAL ( #174, ( #84 ) ) ;
#127 = PRODUCT ( '61280', '61280', '', ( #224 ) ) ;
#128 = DIRECTION ( 'NONE',  ( 3.491481338843133355E-15, -1.224646799147353454E-16, 1.000000000000000000 ) ) ;
#129 = FACE_OUTER_BOUND ( 'NONE', #237, .T. ) ;
#130 = CARTESIAN_POINT ( 'NONE',  ( 0.0000000000000000000, 0.0000000000000000000, 0.0000000000000000000 ) ) ;
#131 = LINE ( 'NONE', #223, #171 ) ;
#132 = PERSON_AND_ORGANIZATION_ROLE ( 'design_owner' ) ;
#133 = EDGE_CURVE ( 'NONE', #279, #12, #206, .T. ) ;
#134 = DIRECTION ( 'NONE',  ( 2.468850131082279149E-15, -0.7071067811865435759, 0.7071067811865514585 ) ) ;
#135 = LINE ( 'NONE', #103, #11 ) ;
#136 = DIRECTION ( 'NONE',  ( 0.0000000000000000000, 1.000000000000000000, 0.0000000000000000000 ) ) ;
#137 = AXIS2_PLACEMENT_3D ( 'NONE', #111, #5, #87 ) ;
#138 = CARTESIAN_POINT ( 'NONE',  ( 6.982962677686326664E-15, 6.523246635048487142E-31, 2.000000000000017319 ) ) ;
#139 = ADVANCED_BREP_SHAPE_REPRESENTATION ( '61280', ( #142, #42, #162 ), #65 ) ;
#140 = DATE_AND_TIME ( #118, #71 ) ;
#141 = ADVANCED_FACE ( 'NONE', ( #24 ), #2, .T. ) ;
#142 = MANIFOLD_SOLID_BREP ( 'Corps-Déplacer/Copier1[1]', #48 ) ;
#143 = APPROVAL_PERSON_ORGANIZATION ( #245, #174, #86 ) ;
#144 = APPROVAL_DATE_TIME ( #140, #221 ) ;
#145 = APPLICATION_CONTEXT ( 'configuration controlled 3d designs of mechanical parts and assemblies' ) ;
#146 = FACE_OUTER_BOUND ( 'NONE', #123, .T. ) ;
#147 = PERSON_AND_ORGANIZATION ( #43, #270 ) ;
#148 = VERTEX_POINT ( 'NONE', #189 ) ;
#149 = ORIENTED_EDGE ( 'NONE', *, *, #116, .T. ) ;
#150 = AXIS2_PLACEMENT_3D ( 'NONE', #209, #58, #136 ) ;
#151 = ORIENTED_EDGE ( 'NONE', *, *, #260, .F. ) ;
#152 = ORIENTED_EDGE ( 'NONE', *, *, #116, .F. ) ;
#153 = ADVANCED_FACE ( 'NONE', ( #251 ), #49, .F. ) ;
#154 = FACE_OUTER_BOUND ( 'NONE', #120, .T. ) ;
#155 = UNCERTAINTY_MEASURE_WITH_UNIT (LENGTH_MEASURE( 1.000000000000000082E-05 ), #109, 'distance_accuracy_value', 'NONE');
#156 = LOCAL_TIME ( 9, 46, 54.00000000000000000, #168 ) ;
#157 = CARTESIAN_POINT ( 'NONE',  ( 1.745740669421566678E-13, 1.199807826129474181E-32, 50.00000000000000000 ) ) ;
#158 = CARTESIAN_POINT ( 'NONE',  ( 1.731774744066194397E-13, -6.074248123770874235E-15, 49.60000000000000853 ) ) ;
#159 = FACE_OUTER_BOUND ( 'NONE', #125, .T. ) ;
#160 = APPLICATION_PROTOCOL_DEFINITION ( 'international standard', 'config_control_design', 1994, #145 ) ;
#161 = DIRECTION ( 'NONE',  ( 0.0000000000000000000, 0.0000000000000000000, 1.000000000000000000 ) ) ;
#162 = AXIS2_PLACEMENT_3D ( 'NONE', #130, #161, #247 ) ;
#163 = FACE_OUTER_BOUND ( 'NONE', #261, .T. ) ;
#164 = DIRECTION ( 'NONE',  ( -3.491481338843133355E-15, 1.224646799147353454E-16, -1.000000000000000000 ) ) ;
#165 = CARTESIAN_POINT ( 'NONE',  ( 9.032514790198208367E-14, -2.000000000000001776, 49.60000000000000853 ) ) ;
#166 = FACE_OUTER_BOUND ( 'NONE', #278, .T. ) ;
#167 = CIRCLE ( 'NONE', #39, 1.999999999999989120 ) ;
#168 = COORDINATED_UNIVERSAL_TIME_OFFSET ( 1, 0, .AHEAD. ) ;
#169 = PERSON_AND_ORGANIZATION ( #43, #270 ) ;
#170 = ORIENTED_EDGE ( 'NONE', *, *, #276, .T. ) ;
#171 = VECTOR ( 'NONE', #21, 1000.000000000000000 ) ;
#172 = PERSON_AND_ORGANIZATION ( #43, #270 ) ;
#173 = CARTESIAN_POINT ( 'NONE',  ( 0.0000000000000000000, 0.0000000000000000000, 0.0000000000000000000 ) ) ;
#174 = APPROVAL ( #41, 'UNSPECIFIED' ) ;
#175 = ORIENTED_EDGE ( 'NONE', *, *, #256, .F. ) ;
#176 = ORIENTED_EDGE ( 'NONE', *, *, #260, .T. ) ;
#177 = CARTESIAN_POINT ( 'NONE',  ( 1.731774744066194397E-13, 1.999999999999989564, 49.60000000000000853 ) ) ;
#178 = CARTESIAN_POINT ( 'NONE',  ( 6.982962677686306942E-15, -2.449293598294721205E-16, 2.000000000000011546 ) ) ;
#179 = CARTESIAN_POINT ( 'NONE',  ( 6.982962677686305365E-15, -1.999999999999989564, 2.000000000000011102 ) ) ;
#180 = CC_DESIGN_DATE_AND_TIME_ASSIGNMENT ( #232, #50, ( #200 ) ) ;
#181 = CC_DESIGN_APPROVAL ( #221, ( #200 ) ) ;
#182 = CARTESIAN_POINT ( 'NONE',  ( 1.745740669421566678E-13, 1.599999999999989431, 50.00000000000000000 ) ) ;
#183 = DIRECTION ( 'NONE',  ( 0.0000000000000000000, 1.000000000000000000, 0.0000000000000000000 ) ) ;
#184 = APPLICATION_PROTOCOL_DEFINITION ( 'international standard', 'config_control_design', 1994, #13 ) ;
#185 = CARTESIAN_POINT ( 'NONE',  ( 1.731774744066194397E-13, -6.074248123770874235E-15, 49.60000000000000853 ) ) ;
#186 = LOCAL_TIME ( 9, 46, 54.00000000000000000, #259 ) ;
#187 = DIRECTION ( 'NONE',  ( 0.0000000000000000000, 1.000000000000000000, 0.0000000000000000000 ) ) ;
#188 = LINE ( 'NONE', #68, #98 ) ;
#189 = CARTESIAN_POINT ( 'NONE',  ( 7.227892037515776450E-15, 1.999999999999988676, 2.000000000000011990 ) ) ;
#190 = LINE ( 'NONE', #274, #231 ) ;
#191 = CC_DESIGN_PERSON_AND_ORGANIZATION_ASSIGNMENT ( #147, #115, ( #200 ) ) ;
#192 = APPROVAL_ROLE ( '' ) ;
#193 = APPROVAL_STATUS ( 'not_yet_approved' ) ;
#194 = VERTEX_POINT ( 'NONE', #177 ) ;
#195 = CLOSED_SHELL ( 'NONE', ( #198, #141, #196 ) ) ;
#196 = ADVANCED_FACE ( 'NONE', ( #154 ), #239, .T. ) ;
#197 = ORIENTED_EDGE ( 'NONE', *, *, #133, .F. ) ;
#198 = ADVANCED_FACE ( 'NONE', ( #18 ), #218, .T. ) ;
#199 = PRODUCT_DEFINITION_SHAPE ( 'NONE', 'NONE',  #84 ) ;
#200 = SECURITY_CLASSIFICATION ( '', '', #25 ) ;
#201 = VERTEX_POINT ( 'NONE', #88 ) ;
#202 = CARTESIAN_POINT ( 'NONE',  ( 6.982962677686306942E-15, -2.449293598294721205E-16, 2.000000000000011546 ) ) ;
#203 = DIRECTION ( 'NONE',  ( 7.703719777548985451E-31, 1.000000000000000000, 2.168404344971020701E-16 ) ) ;
#204 = DIRECTION ( 'NONE',  ( -3.491481338843133355E-15, 1.224646799147353454E-16, -1.000000000000000000 ) ) ;
#205 = AXIS2_PLACEMENT_3D ( 'NONE', #202, #210, #6 ) ;
#206 = LINE ( 'NONE', #272, #227 ) ;
#207 = DIRECTION ( 'NONE',  ( -3.491481338843133355E-15, 1.224646799147353454E-16, -1.000000000000000000 ) ) ;
#208 = PERSON_AND_ORGANIZATION ( #43, #270 ) ;
#209 = CARTESIAN_POINT ( 'NONE',  ( 1.745740669421566678E-13, -6.123233995736767663E-15, 50.00000000000000000 ) ) ;
#210 = DIRECTION ( 'NONE',  ( 3.491481338843133355E-15, -1.224646799147353454E-16, 1.000000000000000000 ) ) ;
#211 = COORDINATED_UNIVERSAL_TIME_OFFSET ( 1, 0, .AHEAD. ) ;
#212 = CONICAL_SURFACE ( 'NONE', #275, 1.599999999999995426, 0.7853981633974516097 ) ;
#213 = ORIENTED_EDGE ( 'NONE', *, *, #249, .T. ) ;
#214 = CIRCLE ( 'NONE', #35, 1.599999999999995426 ) ;
#215 = ORIENTED_EDGE ( 'NONE', *, *, #244, .T. ) ;
#216 = ORIENTED_EDGE ( 'NONE', *, *, #122, .F. ) ;
#217 = ORIENTED_EDGE ( 'NONE', *, *, #236, .T. ) ;
#218 = CONICAL_SURFACE ( 'NONE', #205, 1.999999999999989120, 0.7853981633974426169 ) ;
#219 = DIRECTION ( 'NONE',  ( -4.275831445896959482E-31, -1.000000000000000000, -1.224646799147353454E-16 ) ) ;
#220 = CARTESIAN_POINT ( 'NONE',  ( 6.982962677686306942E-15, -2.449293598294721205E-16, 2.000000000000011546 ) ) ;
#221 = APPROVAL ( #29, 'UNSPECIFIED' ) ;
#222 = CARTESIAN_POINT ( 'NONE',  ( 6.982962677686306942E-15, -2.449293598294721205E-16, 2.000000000000011546 ) ) ;
#223 = CARTESIAN_POINT ( 'NONE',  ( 2.449293598294688665E-16, -1.999999999999992228, -2.449293598294705921E-16 ) ) ;
#224 = MECHANICAL_CONTEXT ( 'NONE', #145, 'mechanical' ) ;
#225 = PRODUCT_RELATED_PRODUCT_CATEGORY ( 'detail', '', ( #127 ) ) ;
#226 = DESIGN_CONTEXT ( 'detailed design', #13, 'design' ) ;
#227 = VECTOR ( 'NONE', #57, 1000.000000000000114 ) ;
#228 = DIRECTION ( 'NONE',  ( -3.491481338843133355E-15, 1.224646799147353454E-16, -1.000000000000000000 ) ) ;
#229 = APPROVAL_ROLE ( '' ) ;
#230 = APPROVAL_DATE_TIME ( #250, #121 ) ;
#231 = VECTOR ( 'NONE', #72, 1000.000000000000000 ) ;
#232 = DATE_AND_TIME ( #47, #60 ) ;
#233 = PERSON_AND_ORGANIZATION ( #43, #270 ) ;
#234 = ORIENTED_EDGE ( 'NONE', *, *, #122, .T. ) ;
#235 = AXIS2_PLACEMENT_3D ( 'NONE', #185, #207, #287 ) ;
#236 = EDGE_CURVE ( 'NONE', #194, #10, #190, .T. ) ;
#237 = EDGE_LOOP ( 'NONE', ( #79, #175 ) ) ;
#238 = ORIENTED_EDGE ( 'NONE', *, *, #51, .F. ) ;
#239 = PLANE ( 'NONE',  #110 ) ;
#240 = AXIS2_PLACEMENT_3D ( 'NONE', #178, #38, #241 ) ;
#241 = DIRECTION ( 'NONE',  ( 7.703719777548985451E-31, 1.000000000000000000, 2.168404344971020701E-16 ) ) ;
#242 = DIRECTION ( 'NONE',  ( 4.275831445896959482E-31, 1.000000000000000000, 1.224646799147353454E-16 ) ) ;
#243 = PERSON_AND_ORGANIZATION ( #43, #270 ) ;
#244 = EDGE_CURVE ( 'NONE', #12, #194, #94, .T. ) ;
#245 = PERSON_AND_ORGANIZATION ( #43, #270 ) ;
#246 = DIRECTION ( 'NONE',  ( 0.0000000000000000000, 1.000000000000000000, 0.0000000000000000000 ) ) ;
#247 = DIRECTION ( 'NONE',  ( 1.000000000000000000, 0.0000000000000000000, 0.0000000000000000000 ) ) ;
#248 = PLANE ( 'NONE',  #105 ) ;
#249 = EDGE_CURVE ( 'NONE', #10, #77, #281, .T. ) ;
#250 = DATE_AND_TIME ( #254, #156 ) ;
#251 = FACE_OUTER_BOUND ( 'NONE', #15, .T. ) ;
#252 = AXIS2_PLACEMENT_3D ( 'NONE', #62, #36, #282 ) ;
#253 = PERSON_AND_ORGANIZATION_ROLE ( 'creator' ) ;
#254 = CALENDAR_DATE ( 2021, 21, 9 ) ;
#255 = ADVANCED_FACE ( 'NONE', ( #163 ), #212, .T. ) ;
#256 = EDGE_CURVE ( 'NONE', #279, #96, #85, .T. ) ;
#257 = CONICAL_SURFACE ( 'NONE', #150, 1.599999999999995426, 0.7853981633974516097 ) ;
#258 = ORIENTED_EDGE ( 'NONE', *, *, #133, .T. ) ;
#259 = COORDINATED_UNIVERSAL_TIME_OFFSET ( 1, 0, .AHEAD. ) ;
#260 = EDGE_CURVE ( 'NONE', #96, #194, #135, .T. ) ;
#261 = EDGE_LOOP ( 'NONE', ( #197, #32, #176, #55 ) ) ;
#262 = VECTOR ( 'NONE', #134, 1000.000000000000000 ) ;
#263 = CIRCLE ( 'NONE', #89, 1.999999999999995781 ) ;
#264 = DIRECTION ( 'NONE',  ( -3.491481338843133355E-15, 1.224646799147353454E-16, -1.000000000000000000 ) ) ;
#265 = AXIS2_PLACEMENT_3D ( 'NONE', #222, #67, #269 ) ;
#266 = DIRECTION ( 'NONE',  ( -3.491481338843133355E-15, 1.224646799147353454E-16, -1.000000000000000000 ) ) ;
#267 = DIRECTION ( 'NONE',  ( -2.468850131082256666E-15, 0.7071067811865500152, -0.7071067811865451302 ) ) ;
#268 = EDGE_CURVE ( 'NONE', #194, #12, #263, .T. ) ;
#269 = DIRECTION ( 'NONE',  ( 7.703719777548985451E-31, 1.000000000000000000, 2.168404344971020701E-16 ) ) ;
#270 = ORGANIZATION ( 'UNSPECIFIED', 'UNSPECIFIED', '' ) ;
#271 = DIRECTION ( 'NONE',  ( 0.0000000000000000000, 1.000000000000000000, 0.0000000000000000000 ) ) ;
#272 = CARTESIAN_POINT ( 'NONE',  ( 1.747700104300202289E-13, -1.600000000000001643, 50.00000000000000000 ) ) ;
#273 = APPROVAL_DATE_TIME ( #1, #174 ) ;
#274 = CARTESIAN_POINT ( 'NONE',  ( 8.551662891793885684E-31, 1.999999999999992228, 2.449293598294697540E-16 ) ) ;
#275 = AXIS2_PLACEMENT_3D ( 'NONE', #61, #164, #187 ) ;
#276 = EDGE_CURVE ( 'NONE', #201, #95, #44, .T. ) ;
#277 = COORDINATED_UNIVERSAL_TIME_OFFSET ( 1, 0, .AHEAD. ) ;
#278 = EDGE_LOOP ( 'NONE', ( #216, #215, #217, #238 ) ) ;
#279 = VERTEX_POINT ( 'NONE', #63 ) ;
#280 = ORIENTED_EDGE ( 'NONE', *, *, #66, .T. ) ;
#281 = CIRCLE ( 'NONE', #265, 1.999999999999989120 ) ;
#282 = DIRECTION ( 'NONE',  ( 4.275831445896959482E-31, 1.000000000000000000, 1.224646799147353454E-16 ) ) ;
#283 = CC_DESIGN_PERSON_AND_ORGANIZATION_ASSIGNMENT ( #243, #132, ( #127 ) ) ;
#284 = CARTESIAN_POINT ( 'NONE',  ( 6.982962677686306942E-15, -2.449293598294721205E-16, 2.000000000000011546 ) ) ;
#285 = CARTESIAN_POINT ( 'NONE',  ( 1.745740669421566678E-13, -6.123233995736767663E-15, 50.00000000000000000 ) ) ;
#286 = CIRCLE ( 'NONE', #240, 1.999999999999989120 ) ;
#287 = DIRECTION ( 'NONE',  ( 0.0000000000000000000, 1.000000000000000000, 0.0000000000000000000 ) ) ;
ENDSEC;
END-ISO-10303-21;
