ISO-10303-21;
HEADER;
FILE_DESCRIPTION (( 'STEP AP203' ),
    '1' );
FILE_NAME ('61256.step',
    '2021-10-07T13:48:25',
    ( '' ),
    ( '' ),
    'SwSTEP 2.0',
    'SolidWorks 2019',
    '' );
FILE_SCHEMA (( 'CONFIG_CONTROL_DESIGN' ));
ENDSEC;

DATA;
#1 = CALENDAR_DATE ( 2021, 7, 10 ) ;
#2 = COORDINATED_UNIVERSAL_TIME_OFFSET ( 1, 0, .AHEAD. ) ;
#3 = EDGE_CURVE ( 'NONE', #198, #198, #208, .T. ) ;
#4 = ORIENTED_EDGE ( 'NONE', *, *, #127, .F. ) ;
#5 = DIRECTION ( 'NONE',  ( -3.491481338843133355E-15, 1.224646799147353207E-16, -1.000000000000000000 ) ) ;
#6 = LOCAL_TIME ( 15, 48, 25.00000000000000000, #2 ) ;
#7 = ORIENTED_EDGE ( 'NONE', *, *, #12, .T. ) ;
#8 = CARTESIAN_POINT ( 'NONE',  ( 4.189777606611760026E-14, 7.611280897008861127E-33, 12.00000000000000000 ) ) ;
#9 =( NAMED_UNIT ( * ) PLANE_ANGLE_UNIT ( ) SI_UNIT ( $, .RADIAN. ) );
#10 = DIRECTION ( 'NONE',  ( -3.491481338843133355E-15, 1.224646799147353207E-16, -1.000000000000000000 ) ) ;
#11 = DIRECTION ( 'NONE',  ( 1.000000000000000000, 0.0000000000000000000, 0.0000000000000000000 ) ) ;
#12 = EDGE_CURVE ( 'NONE', #201, #201, #186, .T. ) ;
#13 = CARTESIAN_POINT ( 'NONE',  ( 4.189777606611760026E-14, -1.469576158976823947E-15, 12.00000000000000000 ) ) ;
#14 = COORDINATED_UNIVERSAL_TIME_OFFSET ( 1, 0, .AHEAD. ) ;
#15 = DATE_TIME_ROLE ( 'classification_date' ) ;
#16 = APPLICATION_CONTEXT ( 'configuration controlled 3d designs of mechanical parts and assemblies' ) ;
#17 = DIRECTION ( 'NONE',  ( 0.0000000000000000000, 1.000000000000000000, 0.0000000000000000000 ) ) ;
#18 = AXIS2_PLACEMENT_3D ( 'NONE', #212, #37, #177 ) ;
#19 = ORIENTED_EDGE ( 'NONE', *, *, #119, .F. ) ;
#20 = ADVANCED_FACE ( 'NONE', ( #214 ), #123, .T. ) ;
#21 = DIRECTION ( 'NONE',  ( -3.491481338843133355E-15, 1.224646799147353207E-16, -1.000000000000000000 ) ) ;
#22 = CARTESIAN_POINT ( 'NONE',  ( 2.129362043159177281E-15, -7.468796643331894411E-17, 0.6098735283129765872 ) ) ;
#23 = PRODUCT_DEFINITION_SHAPE ( 'NONE', 'NONE',  #104 ) ;
#24 = CC_DESIGN_APPROVAL ( #79, ( #104 ) ) ;
#25 = EDGE_LOOP ( 'NONE', ( #103 ) ) ;
#26 = CARTESIAN_POINT ( 'NONE',  ( 1.501336975702547217E-13, 7.123858967643751109E-33, 43.00000000000000000 ) ) ;
#27 = PRODUCT ( '61256', '61256', '', ( #78 ) ) ;
#28 = FACE_OUTER_BOUND ( 'NONE', #196, .T. ) ;
#29 = AXIS2_PLACEMENT_3D ( 'NONE', #58, #21, #194 ) ;
#30 = CARTESIAN_POINT ( 'NONE',  ( 2.129362043159177675E-15, 1.014999999999993463, 0.6098735283129766982 ) ) ;
#31 = DIRECTION ( 'NONE',  ( -3.491481338843133355E-15, 1.224646799147353207E-16, -1.000000000000000000 ) ) ;
#32 = AXIS2_PLACEMENT_3D ( 'NONE', #8, #73, #211 ) ;
#33 = CALENDAR_DATE ( 2021, 7, 10 ) ;
#34 = CC_DESIGN_APPROVAL ( #39, ( #137 ) ) ;
#35 = COORDINATED_UNIVERSAL_TIME_OFFSET ( 1, 0, .AHEAD. ) ;
#36 = DIRECTION ( 'NONE',  ( 3.491481338843133355E-15, -1.224646799147353207E-16, 1.000000000000000000 ) ) ;
#37 = DIRECTION ( 'NONE',  ( -3.491481338843133355E-15, 1.224646799147353207E-16, -1.000000000000000000 ) ) ;
#38 = LOCAL_TIME ( 15, 48, 25.00000000000000000, #168 ) ;
#39 = APPROVAL ( #66, 'UNSPECIFIED' ) ;
#40 = MANIFOLD_SOLID_BREP ( 'Corps-Déplacer/Copier1[1]', #197 ) ;
#41 = EDGE_LOOP ( 'NONE', ( #101 ) ) ;
#42 = DIRECTION ( 'NONE',  ( -3.491481338843133355E-15, 1.224646799147353207E-16, -1.000000000000000000 ) ) ;
#43 = PERSON ( 'UNSPECIFIED', 'UNSPECIFIED', 'UNSPECIFIED', ('UNSPECIFIED'), ('UNSPECIFIED'), ('UNSPECIFIED') ) ;
#44 = FACE_OUTER_BOUND ( 'NONE', #121, .T. ) ;
#45 = FACE_BOUND ( 'NONE', #41, .T. ) ;
#46 = PRODUCT_RELATED_PRODUCT_CATEGORY ( 'detail', '', ( #27 ) ) ;
#47 = AXIS2_PLACEMENT_3D ( 'NONE', #219, #164, #11 ) ;
#48 = VERTEX_POINT ( 'NONE', #185 ) ;
#49 = AXIS2_PLACEMENT_3D ( 'NONE', #22, #89, #159 ) ;
#50 = PERSON_AND_ORGANIZATION ( #43, #171 ) ;
#51 = APPROVAL_PERSON_ORGANIZATION ( #99, #116, #83 ) ;
#52 = APPROVAL_DATE_TIME ( #152, #116 ) ;
#53 = ADVANCED_FACE ( 'NONE', ( #71 ), #60, .T. ) ;
#54 = APPLICATION_PROTOCOL_DEFINITION ( 'international standard', 'config_control_design', 1994, #210 ) ;
#55 = PRODUCT_DEFINITION_FORMATION_WITH_SPECIFIED_SOURCE ( 'ANY', '', #27, .NOT_KNOWN. ) ;
#56 = CARTESIAN_POINT ( 'NONE',  ( 4.331892048816804623E-14, -1.519423195196895701E-15, 12.40703193977869567 ) ) ;
#57 = DIRECTION ( 'NONE',  ( -3.491481338843133355E-15, 1.224646799147353207E-16, -1.000000000000000000 ) ) ;
#58 = CARTESIAN_POINT ( 'NONE',  ( 1.490862531686017501E-13, -5.229241832359196822E-15, 42.69999999999998863 ) ) ;
#59 = CC_DESIGN_PERSON_AND_ORGANIZATION_ASSIGNMENT ( #50, #151, ( #55 ) ) ;
#60 = PLANE ( 'NONE',  #32 ) ;
#61 = CARTESIAN_POINT ( 'NONE',  ( 1.501336975702547217E-13, -5.265981236333618470E-15, 43.00000000000000000 ) ) ;
#62 = CONICAL_SURFACE ( 'NONE', #90, 1.249999999999996891, 0.5235987755982937086 ) ;
#63 = PLANE ( 'NONE',  #118 ) ;
#64 = DIRECTION ( 'NONE',  ( -3.491481338843133355E-15, 1.224646799147353207E-16, -1.000000000000000000 ) ) ;
#65 = FACE_OUTER_BOUND ( 'NONE', #193, .T. ) ;
#66 = APPROVAL_STATUS ( 'not_yet_approved' ) ;
#67 = SECURITY_CLASSIFICATION_LEVEL ( 'unclassified' ) ;
#68 = DATE_AND_TIME ( #33, #150 ) ;
#69 = PERSON_AND_ORGANIZATION_ROLE ( 'creator' ) ;
#70 = CARTESIAN_POINT ( 'NONE',  ( 0.0000000000000000000, 0.0000000000000000000, 0.0000000000000000000 ) ) ;
#71 = FACE_OUTER_BOUND ( 'NONE', #146, .T. ) ;
#72 = FACE_OUTER_BOUND ( 'NONE', #178, .T. ) ;
#73 = DIRECTION ( 'NONE',  ( 3.491481338843133355E-15, -1.224646799147353207E-16, 1.000000000000000000 ) ) ;
#74 = FACE_OUTER_BOUND ( 'NONE', #102, .T. ) ;
#75 = CIRCLE ( 'NONE', #222, 1.249999999999996891 ) ;
#76 = CC_DESIGN_APPROVAL ( #116, ( #55 ) ) ;
#77 = ADVANCED_FACE ( 'NONE', ( #209, #72 ), #62, .T. ) ;
#78 = MECHANICAL_CONTEXT ( 'NONE', #16, 'mechanical' ) ;
#79 = APPROVAL ( #82, 'UNSPECIFIED' ) ;
#80 = APPROVAL_STATUS ( 'not_yet_approved' ) ;
#81 = APPROVAL_DATE_TIME ( #189, #79 ) ;
#82 = APPROVAL_STATUS ( 'not_yet_approved' ) ;
#83 = APPROVAL_ROLE ( '' ) ;
#84 = CC_DESIGN_DATE_AND_TIME_ASSIGNMENT ( #68, #97, ( #104 ) ) ;
#85 = EDGE_LOOP ( 'NONE', ( #160 ) ) ;
#86 = EDGE_CURVE ( 'NONE', #218, #218, #114, .T. ) ;
#87 = FACE_OUTER_BOUND ( 'NONE', #106, .T. ) ;
#88 = CARTESIAN_POINT ( 'NONE',  ( 4.331892048816804623E-14, -1.519423195196895701E-15, 12.40703193977869567 ) ) ;
#89 = DIRECTION ( 'NONE',  ( 3.491481338843133355E-15, -1.224646799147353207E-16, 1.000000000000000000 ) ) ;
#90 = AXIS2_PLACEMENT_3D ( 'NONE', #56, #36, #174 ) ;
#91 = DIRECTION ( 'NONE',  ( 3.794935851009356134E-31, 1.000000000000000000, 1.068179480281292026E-16 ) ) ;
#92 = CARTESIAN_POINT ( 'NONE',  ( 1.501336975702547217E-13, 0.9499999999999955147, 43.00000000000000000 ) ) ;
#93 =( LENGTH_UNIT ( ) NAMED_UNIT ( * ) SI_UNIT ( .MILLI., .METRE. ) );
#94 = AXIS2_PLACEMENT_3D ( 'NONE', #26, #183, #107 ) ;
#95 = VERTEX_POINT ( 'NONE', #165 ) ;
#96 = AXIS2_PLACEMENT_3D ( 'NONE', #161, #42, #91 ) ;
#97 = DATE_TIME_ROLE ( 'creation_date' ) ;
#98 = APPROVAL_ROLE ( '' ) ;
#99 = PERSON_AND_ORGANIZATION ( #43, #171 ) ;
#100 = ADVANCED_FACE ( 'NONE', ( #143, #87 ), #157, .T. ) ;
#101 = ORIENTED_EDGE ( 'NONE', *, *, #119, .T. ) ;
#102 = EDGE_LOOP ( 'NONE', ( #19 ) ) ;
#103 = ORIENTED_EDGE ( 'NONE', *, *, #127, .T. ) ;
#104 = PRODUCT_DEFINITION ( 'UNKNOWN', '', #55, #169 ) ;
#105 = CARTESIAN_POINT ( 'NONE',  ( 4.189777606611760026E-14, -1.469576158976823947E-15, 12.00000000000000000 ) ) ;
#106 = EDGE_LOOP ( 'NONE', ( #124 ) ) ;
#107 = DIRECTION ( 'NONE',  ( 4.275831445896958607E-31, 1.000000000000000000, 1.224646799147353207E-16 ) ) ;
#108 = CYLINDRICAL_SURFACE ( 'NONE', #154, 1.249999999999998890 ) ;
#109 = MANIFOLD_SOLID_BREP ( 'Corps-Déplacer/Copier1[2]', #129 ) ;
#110 =( GEOMETRIC_REPRESENTATION_CONTEXT ( 3 ) GLOBAL_UNCERTAINTY_ASSIGNED_CONTEXT ( ( #204 ) ) GLOBAL_UNIT_ASSIGNED_CONTEXT ( ( #93, #9, #199 ) ) REPRESENTATION_CONTEXT ( 'NONE', 'WORKASPACE' ) );
#111 = DIRECTION ( 'NONE',  ( 0.0000000000000000000, 1.000000000000000000, 0.0000000000000000000 ) ) ;
#112 = CARTESIAN_POINT ( 'NONE',  ( 4.189777606611760026E-14, 7.611280897008861127E-33, 12.00000000000000000 ) ) ;
#113 = PERSON_AND_ORGANIZATION ( #43, #171 ) ;
#114 = CIRCLE ( 'NONE', #175, 1.014999999999993907 ) ;
#115 = PERSON_AND_ORGANIZATION ( #43, #171 ) ;
#116 = APPROVAL ( #80, 'UNSPECIFIED' ) ;
#117 = CALENDAR_DATE ( 2021, 7, 10 ) ;
#118 = AXIS2_PLACEMENT_3D ( 'NONE', #112, #148, #182 ) ;
#119 = EDGE_CURVE ( 'NONE', #184, #184, #180, .T. ) ;
#120 = APPROVAL_ROLE ( '' ) ;
#121 = EDGE_LOOP ( 'NONE', ( #7 ) ) ;
#122 = ORIENTED_EDGE ( 'NONE', *, *, #3, .F. ) ;
#123 = CONICAL_SURFACE ( 'NONE', #49, 1.014999999999993463, 1.029744258676649649 ) ;
#124 = ORIENTED_EDGE ( 'NONE', *, *, #86, .T. ) ;
#125 = EDGE_CURVE ( 'NONE', #48, #48, #75, .T. ) ;
#126 = ORIENTED_EDGE ( 'NONE', *, *, #125, .T. ) ;
#127 = EDGE_CURVE ( 'NONE', #95, #95, #205, .T. ) ;
#128 = PLANE ( 'NONE',  #94 ) ;
#129 = CLOSED_SHELL ( 'NONE', ( #20, #100, #53 ) ) ;
#130 = CARTESIAN_POINT ( 'NONE',  ( 1.490862531686017501E-13, 1.249999999999995559, 42.69999999999998863 ) ) ;
#131 = DIRECTION ( 'NONE',  ( 0.0000000000000000000, 1.000000000000000000, 0.0000000000000000000 ) ) ;
#132 = LOCAL_TIME ( 15, 48, 25.00000000000000000, #14 ) ;
#133 = ADVANCED_FACE ( 'NONE', ( #28, #45 ), #162, .T. ) ;
#134 = CARTESIAN_POINT ( 'NONE',  ( 0.0000000000000000000, 0.0000000000000000000, 0.0000000000000000000 ) ) ;
#135 = CALENDAR_DATE ( 2021, 7, 10 ) ;
#136 = CC_DESIGN_PERSON_AND_ORGANIZATION_ASSIGNMENT ( #155, #139, ( #137 ) ) ;
#137 = SECURITY_CLASSIFICATION ( '', '', #67 ) ;
#138 = DATE_AND_TIME ( #207, #6 ) ;
#139 = PERSON_AND_ORGANIZATION_ROLE ( 'classification_officer' ) ;
#140 = CC_DESIGN_DATE_AND_TIME_ASSIGNMENT ( #223, #15, ( #137 ) ) ;
#141 = CC_DESIGN_SECURITY_CLASSIFICATION ( #137, ( #55 ) ) ;
#142 = ORIENTED_EDGE ( 'NONE', *, *, #125, .F. ) ;
#143 = FACE_OUTER_BOUND ( 'NONE', #181, .T. ) ;
#144 = AXIS2_PLACEMENT_3D ( 'NONE', #70, #57, #191 ) ;
#145 = ORIENTED_EDGE ( 'NONE', *, *, #12, .F. ) ;
#146 = EDGE_LOOP ( 'NONE', ( #190 ) ) ;
#147 = FACE_OUTER_BOUND ( 'NONE', #25, .T. ) ;
#148 = DIRECTION ( 'NONE',  ( 3.491481338843133355E-15, -1.224646799147353207E-16, 1.000000000000000000 ) ) ;
#149 = CC_DESIGN_PERSON_AND_ORGANIZATION_ASSIGNMENT ( #173, #172, ( #104 ) ) ;
#150 = LOCAL_TIME ( 15, 48, 25.00000000000000000, #35 ) ;
#151 = PERSON_AND_ORGANIZATION_ROLE ( 'design_supplier' ) ;
#152 = DATE_AND_TIME ( #117, #176 ) ;
#153 = COORDINATED_UNIVERSAL_TIME_OFFSET ( 1, 0, .AHEAD. ) ;
#154 = AXIS2_PLACEMENT_3D ( 'NONE', #134, #215, #203 ) ;
#155 = PERSON_AND_ORGANIZATION ( #43, #171 ) ;
#156 = SHAPE_DEFINITION_REPRESENTATION ( #23, #216 ) ;
#157 = CYLINDRICAL_SURFACE ( 'NONE', #144, 1.014999999999993685 ) ;
#158 = EDGE_LOOP ( 'NONE', ( #4 ) ) ;
#159 = DIRECTION ( 'NONE',  ( -3.794935851009356134E-31, -1.000000000000000000, -1.068179480281292026E-16 ) ) ;
#160 = ORIENTED_EDGE ( 'NONE', *, *, #3, .T. ) ;
#161 = CARTESIAN_POINT ( 'NONE',  ( 2.129362043159177281E-15, -7.468796643331894411E-17, 0.6098735283129765872 ) ) ;
#162 = CONICAL_SURFACE ( 'NONE', #213, 0.9500000000000008438, 0.7853981633974336241 ) ;
#163 = ADVANCED_FACE ( 'NONE', ( #147 ), #63, .F. ) ;
#164 = DIRECTION ( 'NONE',  ( 0.0000000000000000000, 0.0000000000000000000, 1.000000000000000000 ) ) ;
#165 = CARTESIAN_POINT ( 'NONE',  ( 4.189777606611760026E-14, 1.014999999999992575, 12.00000000000000000 ) ) ;
#166 = CARTESIAN_POINT ( 'NONE',  ( 4.189777606611760026E-14, 1.014999999999992575, 12.00000000000000000 ) ) ;
#167 = PERSON_AND_ORGANIZATION ( #43, #171 ) ;
#168 = COORDINATED_UNIVERSAL_TIME_OFFSET ( 1, 0, .AHEAD. ) ;
#169 = DESIGN_CONTEXT ( 'detailed design', #210, 'design' ) ;
#170 = PERSON_AND_ORGANIZATION_ROLE ( 'design_owner' ) ;
#171 = ORGANIZATION ( 'UNSPECIFIED', 'UNSPECIFIED', '' ) ;
#172 = PERSON_AND_ORGANIZATION_ROLE ( 'creator' ) ;
#173 = PERSON_AND_ORGANIZATION ( #43, #171 ) ;
#174 = DIRECTION ( 'NONE',  ( 0.0000000000000000000, -1.000000000000000000, 0.0000000000000000000 ) ) ;
#175 = AXIS2_PLACEMENT_3D ( 'NONE', #105, #5, #17 ) ;
#176 = LOCAL_TIME ( 15, 48, 25.00000000000000000, #153 ) ;
#177 = DIRECTION ( 'NONE',  ( 0.0000000000000000000, 1.000000000000000000, 0.0000000000000000000 ) ) ;
#178 = EDGE_LOOP ( 'NONE', ( #126 ) ) ;
#179 = CC_DESIGN_PERSON_AND_ORGANIZATION_ASSIGNMENT ( #113, #69, ( #55 ) ) ;
#180 = CIRCLE ( 'NONE', #18, 0.9500000000000008438 ) ;
#181 = EDGE_LOOP ( 'NONE', ( #122 ) ) ;
#182 = DIRECTION ( 'NONE',  ( -4.275831445896958607E-31, -1.000000000000000000, -1.224646799147353207E-16 ) ) ;
#183 = DIRECTION ( 'NONE',  ( -3.491481338843133355E-15, 1.224646799147353207E-16, -1.000000000000000000 ) ) ;
#184 = VERTEX_POINT ( 'NONE', #92 ) ;
#185 = CARTESIAN_POINT ( 'NONE',  ( 4.331892048816804623E-14, 1.249999999999995559, 12.40703193977869567 ) ) ;
#186 = CIRCLE ( 'NONE', #29, 1.250000000000000666 ) ;
#187 = APPROVAL_DATE_TIME ( #138, #39 ) ;
#188 = PERSON_AND_ORGANIZATION ( #43, #171 ) ;
#189 = DATE_AND_TIME ( #135, #132 ) ;
#190 = ORIENTED_EDGE ( 'NONE', *, *, #86, .F. ) ;
#191 = DIRECTION ( 'NONE',  ( 4.275831445896959482E-31, 1.000000000000000000, 1.224646799147353454E-16 ) ) ;
#192 = AXIS2_PLACEMENT_3D ( 'NONE', #13, #31, #221 ) ;
#193 = EDGE_LOOP ( 'NONE', ( #142 ) ) ;
#194 = DIRECTION ( 'NONE',  ( 0.0000000000000000000, 1.000000000000000000, 0.0000000000000000000 ) ) ;
#195 = CC_DESIGN_PERSON_AND_ORGANIZATION_ASSIGNMENT ( #115, #170, ( #27 ) ) ;
#196 = EDGE_LOOP ( 'NONE', ( #145 ) ) ;
#197 = CLOSED_SHELL ( 'NONE', ( #163, #77, #206, #133, #220 ) ) ;
#198 = VERTEX_POINT ( 'NONE', #30 ) ;
#199 =( NAMED_UNIT ( * ) SI_UNIT ( $, .STERADIAN. ) SOLID_ANGLE_UNIT ( ) );
#200 = APPLICATION_PROTOCOL_DEFINITION ( 'international standard', 'config_control_design', 1994, #16 ) ;
#201 = VERTEX_POINT ( 'NONE', #130 ) ;
#202 = APPROVAL_PERSON_ORGANIZATION ( #167, #79, #120 ) ;
#203 = DIRECTION ( 'NONE',  ( 4.275831445896959482E-31, 1.000000000000000000, 1.224646799147353454E-16 ) ) ;
#204 = UNCERTAINTY_MEASURE_WITH_UNIT (LENGTH_MEASURE( 1.000000000000000082E-05 ), #93, 'distance_accuracy_value', 'NONE');
#205 = CIRCLE ( 'NONE', #192, 1.014999999999993907 ) ;
#206 = ADVANCED_FACE ( 'NONE', ( #65, #44 ), #108, .T. ) ;
#207 = CALENDAR_DATE ( 2021, 7, 10 ) ;
#208 = CIRCLE ( 'NONE', #96, 1.014999999999993463 ) ;
#209 = FACE_BOUND ( 'NONE', #158, .T. ) ;
#210 = APPLICATION_CONTEXT ( 'configuration controlled 3d designs of mechanical parts and assemblies' ) ;
#211 = DIRECTION ( 'NONE',  ( -4.275831445896958607E-31, -1.000000000000000000, -1.224646799147353207E-16 ) ) ;
#212 = CARTESIAN_POINT ( 'NONE',  ( 1.501336975702547217E-13, -5.265981236333618470E-15, 43.00000000000000000 ) ) ;
#213 = AXIS2_PLACEMENT_3D ( 'NONE', #61, #10, #131 ) ;
#214 = FACE_OUTER_BOUND ( 'NONE', #85, .T. ) ;
#215 = DIRECTION ( 'NONE',  ( -3.491481338843133355E-15, 1.224646799147353207E-16, -1.000000000000000000 ) ) ;
#216 = ADVANCED_BREP_SHAPE_REPRESENTATION ( '61256', ( #40, #109, #47 ), #110 ) ;
#217 = APPROVAL_PERSON_ORGANIZATION ( #188, #39, #98 ) ;
#218 = VERTEX_POINT ( 'NONE', #166 ) ;
#219 = CARTESIAN_POINT ( 'NONE',  ( 0.0000000000000000000, 0.0000000000000000000, 0.0000000000000000000 ) ) ;
#220 = ADVANCED_FACE ( 'NONE', ( #74 ), #128, .F. ) ;
#221 = DIRECTION ( 'NONE',  ( 0.0000000000000000000, 1.000000000000000000, 0.0000000000000000000 ) ) ;
#222 = AXIS2_PLACEMENT_3D ( 'NONE', #88, #64, #111 ) ;
#223 = DATE_AND_TIME ( #1, #38 ) ;
ENDSEC;
END-ISO-10303-21;
