ISO-10303-21;
HEADER;
FILE_DESCRIPTION (( 'STEP AP203' ),
    '1' );
FILE_NAME ('61150.step',
    '2021-10-07T13:48:25',
    ( '' ),
    ( '' ),
    'SwSTEP 2.0',
    'SolidWorks 2019',
    '' );
FILE_SCHEMA (( 'CONFIG_CONTROL_DESIGN' ));
ENDSEC;

DATA;
#1 = CC_DESIGN_PERSON_AND_ORGANIZATION_ASSIGNMENT ( #33, #6, ( #26 ) ) ;
#2 = PRODUCT_DEFINITION_FORMATION_WITH_SPECIFIED_SOURCE ( 'ANY', '', #120, .NOT_KNOWN. ) ;
#3 = CARTESIAN_POINT ( 'NONE',  ( 4.189777606611760026E-14, -1.469576158976823947E-15, 12.00000000000000000 ) ) ;
#4 = DIRECTION ( 'NONE',  ( 3.491481338843133355E-15, -1.224646799147353207E-16, 1.000000000000000000 ) ) ;
#5 = DATE_AND_TIME ( #50, #220 ) ;
#6 = PERSON_AND_ORGANIZATION_ROLE ( 'classification_officer' ) ;
#7 = ORIENTED_EDGE ( 'NONE', *, *, #214, .F. ) ;
#8 = AXIS2_PLACEMENT_3D ( 'NONE', #3, #133, #189 ) ;
#9 = CC_DESIGN_PERSON_AND_ORGANIZATION_ASSIGNMENT ( #67, #156, ( #2 ) ) ;
#10 = DIRECTION ( 'NONE',  ( 3.491481338843133355E-15, -1.224646799147353207E-16, 1.000000000000000000 ) ) ;
#11 = AXIS2_PLACEMENT_3D ( 'NONE', #168, #164, #203 ) ;
#12 = CARTESIAN_POINT ( 'NONE',  ( 0.0000000000000000000, 0.0000000000000000000, 0.0000000000000000000 ) ) ;
#13 = ADVANCED_FACE ( 'NONE', ( #110, #176 ), #21, .T. ) ;
#14 = CARTESIAN_POINT ( 'NONE',  ( 1.326762908760390423E-13, -4.653657836759941941E-15, 38.00000000000000000 ) ) ;
#15 = CONICAL_SURFACE ( 'NONE', #165, 0.9999999999999970024, 0.5235987755982902669 ) ;
#16 = PERSON ( 'UNSPECIFIED', 'UNSPECIFIED', 'UNSPECIFIED', ('UNSPECIFIED'), ('UNSPECIFIED'), ('UNSPECIFIED') ) ;
#17 = VERTEX_POINT ( 'NONE', #154 ) ;
#18 = CARTESIAN_POINT ( 'NONE',  ( 1.319779946082704535E-13, -4.629164900776995227E-15, 37.79999999999999716 ) ) ;
#19 = AXIS2_PLACEMENT_3D ( 'NONE', #66, #140, #38 ) ;
#20 = LOCAL_TIME ( 15, 48, 25.00000000000000000, #178 ) ;
#21 = CYLINDRICAL_SURFACE ( 'NONE', #19, 0.9999999999999986677 ) ;
#22 = COORDINATED_UNIVERSAL_TIME_OFFSET ( 1, 0, .AHEAD. ) ;
#23 = SECURITY_CLASSIFICATION_LEVEL ( 'unclassified' ) ;
#24 = DIRECTION ( 'NONE',  ( 0.0000000000000000000, 1.000000000000000000, 0.0000000000000000000 ) ) ;
#25 = CIRCLE ( 'NONE', #181, 0.8000000000000001554 ) ;
#26 = SECURITY_CLASSIFICATION ( '', '', #23 ) ;
#27 = ADVANCED_BREP_SHAPE_REPRESENTATION ( '61150', ( #187, #111, #73 ), #134 ) ;
#28 = APPROVAL_DATE_TIME ( #190, #95 ) ;
#29 = CARTESIAN_POINT ( 'NONE',  ( 4.189777606611760026E-14, 7.161352962210307402E-33, 12.00000000000000000 ) ) ;
#30 = DIRECTION ( 'NONE',  ( -3.491481338843133355E-15, 1.224646799147353207E-16, -1.000000000000000000 ) ) ;
#31 = PERSON_AND_ORGANIZATION ( #16, #57 ) ;
#32 = CC_DESIGN_PERSON_AND_ORGANIZATION_ASSIGNMENT ( #175, #213, ( #2 ) ) ;
#33 = PERSON_AND_ORGANIZATION ( #16, #57 ) ;
#34 = ORIENTED_EDGE ( 'NONE', *, *, #148, .F. ) ;
#35 = DATE_TIME_ROLE ( 'classification_date' ) ;
#36 = EDGE_LOOP ( 'NONE', ( #162 ) ) ;
#37 = EDGE_CURVE ( 'NONE', #45, #45, #25, .T. ) ;
#38 = DIRECTION ( 'NONE',  ( 4.275831445896959482E-31, 1.000000000000000000, 1.224646799147353454E-16 ) ) ;
#39 = ORIENTED_EDGE ( 'NONE', *, *, #207, .F. ) ;
#40 = PERSON_AND_ORGANIZATION ( #16, #57 ) ;
#41 = CIRCLE ( 'NONE', #8, 0.9549999999999947420 ) ;
#42 = LOCAL_TIME ( 15, 48, 25.00000000000000000, #170 ) ;
#43 = CARTESIAN_POINT ( 'NONE',  ( 0.0000000000000000000, 0.0000000000000000000, 0.0000000000000000000 ) ) ;
#44 = DIRECTION ( 'NONE',  ( 1.000000000000000000, 0.0000000000000000000, 0.0000000000000000000 ) ) ;
#45 = VERTEX_POINT ( 'NONE', #100 ) ;
#46 = APPROVAL ( #161, 'UNSPECIFIED' ) ;
#47 = PERSON_AND_ORGANIZATION ( #16, #57 ) ;
#48 = LOCAL_TIME ( 15, 48, 25.00000000000000000, #22 ) ;
#49 = DATE_AND_TIME ( #60, #217 ) ;
#50 = CALENDAR_DATE ( 2021, 7, 10 ) ;
#51 = EDGE_LOOP ( 'NONE', ( #68 ) ) ;
#52 = CALENDAR_DATE ( 2021, 7, 10 ) ;
#53 = CLOSED_SHELL ( 'NONE', ( #122, #92, #13, #155, #116 ) ) ;
#54 = CC_DESIGN_APPROVAL ( #46, ( #26 ) ) ;
#55 = CC_DESIGN_DATE_AND_TIME_ASSIGNMENT ( #91, #35, ( #26 ) ) ;
#56 = CARTESIAN_POINT ( 'NONE',  ( 4.189777606611760026E-14, 7.161352962210307402E-33, 12.00000000000000000 ) ) ;
#57 = ORGANIZATION ( 'UNSPECIFIED', 'UNSPECIFIED', '' ) ;
#58 = PLANE ( 'NONE',  #142 ) ;
#59 = DIRECTION ( 'NONE',  ( 3.491481338843133355E-15, -1.224646799147353207E-16, 1.000000000000000000 ) ) ;
#60 = CALENDAR_DATE ( 2021, 7, 10 ) ;
#61 = CARTESIAN_POINT ( 'NONE',  ( 2.003488424844347911E-15, 0.9549999999999934097, 0.5738218911713225401 ) ) ;
#62 = PERSON_AND_ORGANIZATION ( #16, #57 ) ;
#63 = ADVANCED_FACE ( 'NONE', ( #149 ), #75, .T. ) ;
#64 = APPROVAL_PERSON_ORGANIZATION ( #40, #46, #109 ) ;
#65 = CARTESIAN_POINT ( 'NONE',  ( 4.189777606611760026E-14, 0.9549999999999931877, 12.00000000000000000 ) ) ;
#66 = CARTESIAN_POINT ( 'NONE',  ( 0.0000000000000000000, 0.0000000000000000000, 0.0000000000000000000 ) ) ;
#67 = PERSON_AND_ORGANIZATION ( #16, #57 ) ;
#68 = ORIENTED_EDGE ( 'NONE', *, *, #148, .T. ) ;
#69 = AXIS2_PLACEMENT_3D ( 'NONE', #166, #59, #131 ) ;
#70 = CC_DESIGN_PERSON_AND_ORGANIZATION_ASSIGNMENT ( #62, #99, ( #88 ) ) ;
#71 = AXIS2_PLACEMENT_3D ( 'NONE', #18, #223, #112 ) ;
#72 = PLANE ( 'NONE',  #202 ) ;
#73 = AXIS2_PLACEMENT_3D ( 'NONE', #43, #81, #44 ) ;
#74 = DIRECTION ( 'NONE',  ( -3.491481338843133355E-15, 1.224646799147353207E-16, -1.000000000000000000 ) ) ;
#75 = PLANE ( 'NONE',  #118 ) ;
#76 = EDGE_CURVE ( 'NONE', #83, #83, #106, .T. ) ;
#77 = FACE_OUTER_BOUND ( 'NONE', #143, .T. ) ;
#78 = DIRECTION ( 'NONE',  ( 0.0000000000000000000, -1.000000000000000000, 0.0000000000000000000 ) ) ;
#79 = CIRCLE ( 'NONE', #101, 0.9549999999999935207 ) ;
#80 = CARTESIAN_POINT ( 'NONE',  ( 4.189777606611760026E-14, -1.469576158976823947E-15, 12.00000000000000000 ) ) ;
#81 = DIRECTION ( 'NONE',  ( 0.0000000000000000000, 0.0000000000000000000, 1.000000000000000000 ) ) ;
#82 = PRODUCT_DEFINITION_SHAPE ( 'NONE', 'NONE',  #88 ) ;
#83 = VERTEX_POINT ( 'NONE', #85 ) ;
#84 = PERSON_AND_ORGANIZATION_ROLE ( 'design_owner' ) ;
#85 = CARTESIAN_POINT ( 'NONE',  ( 1.319779946082704535E-13, 0.9999999999999956701, 37.79999999999999716 ) ) ;
#86 = CONICAL_SURFACE ( 'NONE', #102, 0.8000000000000001554, 0.7853981633974516097 ) ;
#87 = APPROVAL_DATE_TIME ( #194, #46 ) ;
#88 = PRODUCT_DEFINITION ( 'UNKNOWN', '', #2, #129 ) ;
#89 = APPROVAL_PERSON_ORGANIZATION ( #31, #198, #159 ) ;
#90 = EDGE_LOOP ( 'NONE', ( #7 ) ) ;
#91 = DATE_AND_TIME ( #52, #20 ) ;
#92 = ADVANCED_FACE ( 'NONE', ( #96, #114 ), #15, .T. ) ;
#93 = DIRECTION ( 'NONE',  ( -3.491481338843133355E-15, 1.224646799147353207E-16, -1.000000000000000000 ) ) ;
#94 = CC_DESIGN_APPROVAL ( #95, ( #88 ) ) ;
#95 = APPROVAL ( #153, 'UNSPECIFIED' ) ;
#96 = FACE_BOUND ( 'NONE', #179, .T. ) ;
#97 = CLOSED_SHELL ( 'NONE', ( #98, #151, #63 ) ) ;
#98 = ADVANCED_FACE ( 'NONE', ( #222 ), #150, .T. ) ;
#99 = PERSON_AND_ORGANIZATION_ROLE ( 'creator' ) ;
#100 = CARTESIAN_POINT ( 'NONE',  ( 1.326762908760390423E-13, 0.7999999999999954925, 38.00000000000000000 ) ) ;
#101 = AXIS2_PLACEMENT_3D ( 'NONE', #183, #74, #204 ) ;
#102 = AXIS2_PLACEMENT_3D ( 'NONE', #14, #119, #172 ) ;
#103 = VERTEX_POINT ( 'NONE', #209 ) ;
#104 = APPROVAL_STATUS ( 'not_yet_approved' ) ;
#105 = EDGE_LOOP ( 'NONE', ( #160 ) ) ;
#106 = CIRCLE ( 'NONE', #71, 1.000000000000000222 ) ;
#107 = ORIENTED_EDGE ( 'NONE', *, *, #214, .T. ) ;
#108 = EDGE_LOOP ( 'NONE', ( #107 ) ) ;
#109 = APPROVAL_ROLE ( '' ) ;
#110 = FACE_OUTER_BOUND ( 'NONE', #193, .T. ) ;
#111 = MANIFOLD_SOLID_BREP ( 'Corps-Déplacer/Copier1[2]', #97 ) ;
#112 = DIRECTION ( 'NONE',  ( 0.0000000000000000000, 1.000000000000000000, 0.0000000000000000000 ) ) ;
#113 = CC_DESIGN_SECURITY_CLASSIFICATION ( #26, ( #2 ) ) ;
#114 = FACE_OUTER_BOUND ( 'NONE', #51, .T. ) ;
#115 = FACE_OUTER_BOUND ( 'NONE', #197, .T. ) ;
#116 = ADVANCED_FACE ( 'NONE', ( #77 ), #58, .F. ) ;
#117 =( NAMED_UNIT ( * ) PLANE_ANGLE_UNIT ( ) SI_UNIT ( $, .RADIAN. ) );
#118 = AXIS2_PLACEMENT_3D ( 'NONE', #29, #4, #174 ) ;
#119 = DIRECTION ( 'NONE',  ( -3.491481338843133355E-15, 1.224646799147353207E-16, -1.000000000000000000 ) ) ;
#120 = PRODUCT ( '61150', '61150', '', ( #186 ) ) ;
#121 =( LENGTH_UNIT ( ) NAMED_UNIT ( * ) SI_UNIT ( .MILLI., .METRE. ) );
#122 = ADVANCED_FACE ( 'NONE', ( #219 ), #72, .F. ) ;
#123 = CALENDAR_DATE ( 2021, 7, 10 ) ;
#124 = PERSON_AND_ORGANIZATION ( #16, #57 ) ;
#125 = EDGE_LOOP ( 'NONE', ( #211 ) ) ;
#126 = CC_DESIGN_APPROVAL ( #198, ( #2 ) ) ;
#127 = CALENDAR_DATE ( 2021, 7, 10 ) ;
#128 = ORIENTED_EDGE ( 'NONE', *, *, #136, .F. ) ;
#129 = DESIGN_CONTEXT ( 'detailed design', #221, 'design' ) ;
#130 = DIRECTION ( 'NONE',  ( 3.491481338843133355E-15, -1.224646799147353207E-16, 1.000000000000000000 ) ) ;
#131 = DIRECTION ( 'NONE',  ( -4.033361140078008512E-31, -1.000000000000000000, -1.135290232969122379E-16 ) ) ;
#132 = FACE_OUTER_BOUND ( 'NONE', #108, .T. ) ;
#133 = DIRECTION ( 'NONE',  ( -3.491481338843133355E-15, 1.224646799147353207E-16, -1.000000000000000000 ) ) ;
#134 =( GEOMETRIC_REPRESENTATION_CONTEXT ( 3 ) GLOBAL_UNCERTAINTY_ASSIGNED_CONTEXT ( ( #145 ) ) GLOBAL_UNIT_ASSIGNED_CONTEXT ( ( #121, #117, #139 ) ) REPRESENTATION_CONTEXT ( 'NONE', 'WORKASPACE' ) );
#135 = DIRECTION ( 'NONE',  ( 0.0000000000000000000, 1.000000000000000000, 0.0000000000000000000 ) ) ;
#136 = EDGE_CURVE ( 'NONE', #208, #208, #79, .T. ) ;
#137 = APPLICATION_PROTOCOL_DEFINITION ( 'international standard', 'config_control_design', 1994, #221 ) ;
#138 = COORDINATED_UNIVERSAL_TIME_OFFSET ( 1, 0, .AHEAD. ) ;
#139 =( NAMED_UNIT ( * ) SI_UNIT ( $, .STERADIAN. ) SOLID_ANGLE_UNIT ( ) );
#140 = DIRECTION ( 'NONE',  ( -3.491481338843133355E-15, 1.224646799147353207E-16, -1.000000000000000000 ) ) ;
#141 = APPROVAL_DATE_TIME ( #5, #198 ) ;
#142 = AXIS2_PLACEMENT_3D ( 'NONE', #182, #184, #205 ) ;
#143 = EDGE_LOOP ( 'NONE', ( #216 ) ) ;
#144 = DIRECTION ( 'NONE',  ( -4.275831445896958607E-31, -1.000000000000000000, -1.224646799147353207E-16 ) ) ;
#145 = UNCERTAINTY_MEASURE_WITH_UNIT (LENGTH_MEASURE( 1.000000000000000082E-05 ), #121, 'distance_accuracy_value', 'NONE');
#146 = CYLINDRICAL_SURFACE ( 'NONE', #215, 0.9549999999999940758 ) ;
#147 = APPLICATION_CONTEXT ( 'configuration controlled 3d designs of mechanical parts and assemblies' ) ;
#148 = EDGE_CURVE ( 'NONE', #17, #17, #210, .T. ) ;
#149 = FACE_OUTER_BOUND ( 'NONE', #90, .T. ) ;
#150 = CONICAL_SURFACE ( 'NONE', #69, 0.9549999999999935207, 1.029744258676649649 ) ;
#151 = ADVANCED_FACE ( 'NONE', ( #115, #132 ), #146, .T. ) ;
#152 = VERTEX_POINT ( 'NONE', #65 ) ;
#153 = APPROVAL_STATUS ( 'not_yet_approved' ) ;
#154 = CARTESIAN_POINT ( 'NONE',  ( 4.216991010438259459E-14, 0.9999999999999954481, 12.07794228634060474 ) ) ;
#155 = ADVANCED_FACE ( 'NONE', ( #199, #200 ), #86, .T. ) ;
#156 = PERSON_AND_ORGANIZATION_ROLE ( 'design_supplier' ) ;
#157 = COORDINATED_UNIVERSAL_TIME_OFFSET ( 1, 0, .AHEAD. ) ;
#158 = ORIENTED_EDGE ( 'NONE', *, *, #136, .T. ) ;
#159 = APPROVAL_ROLE ( '' ) ;
#160 = ORIENTED_EDGE ( 'NONE', *, *, #37, .T. ) ;
#161 = APPROVAL_STATUS ( 'not_yet_approved' ) ;
#162 = ORIENTED_EDGE ( 'NONE', *, *, #207, .T. ) ;
#163 = DIRECTION ( 'NONE',  ( -3.491481338843133355E-15, 1.224646799147353207E-16, -1.000000000000000000 ) ) ;
#164 = DIRECTION ( 'NONE',  ( -3.491481338843133355E-15, 1.224646799147353207E-16, -1.000000000000000000 ) ) ;
#165 = AXIS2_PLACEMENT_3D ( 'NONE', #167, #10, #78 ) ;
#166 = CARTESIAN_POINT ( 'NONE',  ( 2.003488424844347516E-15, -7.027291423036408985E-17, 0.5738218911713224291 ) ) ;
#167 = CARTESIAN_POINT ( 'NONE',  ( 4.216991010438259459E-14, -1.479121336125348754E-15, 12.07794228634060474 ) ) ;
#168 = CARTESIAN_POINT ( 'NONE',  ( 4.216991010438259459E-14, -1.479121336125348754E-15, 12.07794228634060474 ) ) ;
#169 = AXIS2_PLACEMENT_3D ( 'NONE', #80, #30, #135 ) ;
#170 = COORDINATED_UNIVERSAL_TIME_OFFSET ( 1, 0, .AHEAD. ) ;
#171 = APPLICATION_PROTOCOL_DEFINITION ( 'international standard', 'config_control_design', 1994, #147 ) ;
#172 = DIRECTION ( 'NONE',  ( 0.0000000000000000000, 1.000000000000000000, 0.0000000000000000000 ) ) ;
#173 = CC_DESIGN_DATE_AND_TIME_ASSIGNMENT ( #49, #191, ( #88 ) ) ;
#174 = DIRECTION ( 'NONE',  ( -4.275831445896958607E-31, -1.000000000000000000, -1.224646799147353207E-16 ) ) ;
#175 = PERSON_AND_ORGANIZATION ( #16, #57 ) ;
#176 = FACE_OUTER_BOUND ( 'NONE', #125, .T. ) ;
#177 = CIRCLE ( 'NONE', #169, 0.9549999999999947420 ) ;
#178 = COORDINATED_UNIVERSAL_TIME_OFFSET ( 1, 0, .AHEAD. ) ;
#179 = EDGE_LOOP ( 'NONE', ( #39 ) ) ;
#180 = EDGE_LOOP ( 'NONE', ( #212 ) ) ;
#181 = AXIS2_PLACEMENT_3D ( 'NONE', #196, #163, #24 ) ;
#182 = CARTESIAN_POINT ( 'NONE',  ( 1.326762908760390423E-13, 5.999039130647361324E-33, 38.00000000000000000 ) ) ;
#183 = CARTESIAN_POINT ( 'NONE',  ( 2.003488424844347516E-15, -7.027291423036408985E-17, 0.5738218911713224291 ) ) ;
#184 = DIRECTION ( 'NONE',  ( -3.491481338843133355E-15, 1.224646799147353207E-16, -1.000000000000000000 ) ) ;
#185 = APPROVAL_ROLE ( '' ) ;
#186 = MECHANICAL_CONTEXT ( 'NONE', #147, 'mechanical' ) ;
#187 = MANIFOLD_SOLID_BREP ( 'Corps-Déplacer/Copier1[1]', #53 ) ;
#188 = PRODUCT_RELATED_PRODUCT_CATEGORY ( 'detail', '', ( #120 ) ) ;
#189 = DIRECTION ( 'NONE',  ( 0.0000000000000000000, 1.000000000000000000, 0.0000000000000000000 ) ) ;
#190 = DATE_AND_TIME ( #123, #42 ) ;
#191 = DATE_TIME_ROLE ( 'creation_date' ) ;
#192 = SHAPE_DEFINITION_REPRESENTATION ( #82, #27 ) ;
#193 = EDGE_LOOP ( 'NONE', ( #34 ) ) ;
#194 = DATE_AND_TIME ( #127, #48 ) ;
#195 = EDGE_LOOP ( 'NONE', ( #158 ) ) ;
#196 = CARTESIAN_POINT ( 'NONE',  ( 1.326762908760390423E-13, -4.653657836759941941E-15, 38.00000000000000000 ) ) ;
#197 = EDGE_LOOP ( 'NONE', ( #128 ) ) ;
#198 = APPROVAL ( #104, 'UNSPECIFIED' ) ;
#199 = FACE_OUTER_BOUND ( 'NONE', #180, .T. ) ;
#200 = FACE_BOUND ( 'NONE', #105, .T. ) ;
#201 = CC_DESIGN_PERSON_AND_ORGANIZATION_ASSIGNMENT ( #124, #84, ( #120 ) ) ;
#202 = AXIS2_PLACEMENT_3D ( 'NONE', #56, #130, #144 ) ;
#203 = DIRECTION ( 'NONE',  ( 0.0000000000000000000, 1.000000000000000000, 0.0000000000000000000 ) ) ;
#204 = DIRECTION ( 'NONE',  ( 4.033361140078008512E-31, 1.000000000000000000, 1.135290232969122379E-16 ) ) ;
#205 = DIRECTION ( 'NONE',  ( 4.275831445896958607E-31, 1.000000000000000000, 1.224646799147353207E-16 ) ) ;
#206 = APPROVAL_PERSON_ORGANIZATION ( #47, #95, #185 ) ;
#207 = EDGE_CURVE ( 'NONE', #152, #152, #41, .T. ) ;
#208 = VERTEX_POINT ( 'NONE', #61 ) ;
#209 = CARTESIAN_POINT ( 'NONE',  ( 4.189777606611760026E-14, 0.9549999999999931877, 12.00000000000000000 ) ) ;
#210 = CIRCLE ( 'NONE', #11, 0.9999999999999970024 ) ;
#211 = ORIENTED_EDGE ( 'NONE', *, *, #76, .T. ) ;
#212 = ORIENTED_EDGE ( 'NONE', *, *, #76, .F. ) ;
#213 = PERSON_AND_ORGANIZATION_ROLE ( 'creator' ) ;
#214 = EDGE_CURVE ( 'NONE', #103, #103, #177, .T. ) ;
#215 = AXIS2_PLACEMENT_3D ( 'NONE', #12, #93, #218 ) ;
#216 = ORIENTED_EDGE ( 'NONE', *, *, #37, .F. ) ;
#217 = LOCAL_TIME ( 15, 48, 25.00000000000000000, #138 ) ;
#218 = DIRECTION ( 'NONE',  ( 4.275831445896958607E-31, 1.000000000000000000, 1.224646799147353207E-16 ) ) ;
#219 = FACE_OUTER_BOUND ( 'NONE', #36, .T. ) ;
#220 = LOCAL_TIME ( 15, 48, 25.00000000000000000, #157 ) ;
#221 = APPLICATION_CONTEXT ( 'configuration controlled 3d designs of mechanical parts and assemblies' ) ;
#222 = FACE_OUTER_BOUND ( 'NONE', #195, .T. ) ;
#223 = DIRECTION ( 'NONE',  ( -3.491481338843133355E-15, 1.224646799147353207E-16, -1.000000000000000000 ) ) ;
ENDSEC;
END-ISO-10303-21;
