ISO-10303-21;
HEADER;
FILE_DESCRIPTION (( 'STEP AP203' ),
    '1' );
FILE_NAME ('61003.step',
    '2021-10-08T05:54:07',
    ( '' ),
    ( '' ),
    'SwSTEP 2.0',
    'SolidWorks 2019',
    '' );
FILE_SCHEMA (( 'CONFIG_CONTROL_DESIGN' ));
ENDSEC;

DATA;
#1 = ORIENTED_EDGE ( 'NONE', *, *, #99, .F. ) ;
#2 = EDGE_LOOP ( 'NONE', ( #1 ) ) ;
#3 = DIRECTION ( 'NONE',  ( 3.491481338843133355E-15, -1.224646799147353207E-16, 1.000000000000000000 ) ) ;
#4 = DIRECTION ( 'NONE',  ( -3.491481338843133355E-15, 1.224646799147353207E-16, -1.000000000000000000 ) ) ;
#5 = EDGE_CURVE ( 'NONE', #61, #61, #155, .T. ) ;
#6 = FACE_BOUND ( 'NONE', #126, .T. ) ;
#7 = CIRCLE ( 'NONE', #133, 0.7499999999999998890 ) ;
#8 = AXIS2_PLACEMENT_3D ( 'NONE', #132, #128, #204 ) ;
#9 = CLOSED_SHELL ( 'NONE', ( #22, #168, #104, #51, #42 ) ) ;
#10 = CARTESIAN_POINT ( 'NONE',  ( 9.978248069715699196E-16, -3.499898287792225014E-17, 0.2857883832488673503 ) ) ;
#11 = PRODUCT_RELATED_PRODUCT_CATEGORY ( 'detail', '', ( #127 ) ) ;
#12 = FACE_OUTER_BOUND ( 'NONE', #73, .T. ) ;
#13 = DIRECTION ( 'NONE',  ( 3.491481338843133355E-15, -1.224646799147353207E-16, 1.000000000000000000 ) ) ;
#14 = PLANE ( 'NONE',  #29 ) ;
#15 = DIRECTION ( 'NONE',  ( 1.000000000000000000, 0.0000000000000000000, 0.0000000000000000000 ) ) ;
#16 = AXIS2_PLACEMENT_3D ( 'NONE', #164, #130, #146 ) ;
#17 = PERSON_AND_ORGANIZATION ( #185, #60 ) ;
#18 = CC_DESIGN_PERSON_AND_ORGANIZATION_ASSIGNMENT ( #17, #159, ( #43 ) ) ;
#19 = PERSON_AND_ORGANIZATION ( #185, #60 ) ;
#20 = AXIS2_PLACEMENT_3D ( 'NONE', #191, #27, #15 ) ;
#21 = EDGE_LOOP ( 'NONE', ( #44 ) ) ;
#22 = ADVANCED_FACE ( 'NONE', ( #79 ), #148, .F. ) ;
#23 = FACE_OUTER_BOUND ( 'NONE', #129, .T. ) ;
#24 = EDGE_LOOP ( 'NONE', ( #107 ) ) ;
#25 = ORIENTED_EDGE ( 'NONE', *, *, #49, .T. ) ;
#26 = FACE_OUTER_BOUND ( 'NONE', #163, .T. ) ;
#27 = DIRECTION ( 'NONE',  ( 0.0000000000000000000, 0.0000000000000000000, 1.000000000000000000 ) ) ;
#28 = CARTESIAN_POINT ( 'NONE',  ( 1.047444401652940007E-13, 0.6499999999999962474, 30.00000000000000000 ) ) ;
#29 = AXIS2_PLACEMENT_3D ( 'NONE', #118, #170, #136 ) ;
#30 = PRODUCT_DEFINITION_SHAPE ( 'NONE', 'NONE',  #139 ) ;
#31 = MECHANICAL_CONTEXT ( 'NONE', #137, 'mechanical' ) ;
#32 = DATE_AND_TIME ( #196, #134 ) ;
#33 = CALENDAR_DATE ( 2021, 8, 10 ) ;
#34 = CC_DESIGN_APPROVAL ( #200, ( #43 ) ) ;
#35 = ORIENTED_EDGE ( 'NONE', *, *, #5, .F. ) ;
#36 = PERSON_AND_ORGANIZATION ( #185, #60 ) ;
#37 = APPROVAL_DATE_TIME ( #177, #200 ) ;
#38 = AXIS2_PLACEMENT_3D ( 'NONE', #10, #91, #203 ) ;
#39 = EDGE_CURVE ( 'NONE', #84, #84, #209, .T. ) ;
#40 = DIRECTION ( 'NONE',  ( 3.491481338843133355E-15, -1.224646799147353207E-16, 1.000000000000000000 ) ) ;
#41 = CARTESIAN_POINT ( 'NONE',  ( 1.047444401652940007E-13, -3.673940397442059178E-15, 30.00000000000000000 ) ) ;
#42 = ADVANCED_FACE ( 'NONE', ( #26 ), #210, .F. ) ;
#43 = PRODUCT_DEFINITION_FORMATION_WITH_SPECIFIED_SOURCE ( 'ANY', '', #127, .NOT_KNOWN. ) ;
#44 = ORIENTED_EDGE ( 'NONE', *, *, #90, .F. ) ;
#45 = CARTESIAN_POINT ( 'NONE',  ( 1.043952920314096810E-13, -3.661693929450586610E-15, 29.89999999999999858 ) ) ;
#46 = FACE_OUTER_BOUND ( 'NONE', #145, .T. ) ;
#47 = FACE_OUTER_BOUND ( 'NONE', #72, .T. ) ;
#48 = CARTESIAN_POINT ( 'NONE',  ( 1.043952920314096810E-13, 0.7499999999999962252, 29.89999999999999858 ) ) ;
#49 = EDGE_CURVE ( 'NONE', #135, #135, #123, .T. ) ;
#50 = PERSON_AND_ORGANIZATION_ROLE ( 'creator' ) ;
#51 = ADVANCED_FACE ( 'NONE', ( #112, #6 ), #213, .T. ) ;
#52 = ORIENTED_EDGE ( 'NONE', *, *, #182, .F. ) ;
#53 = DIRECTION ( 'NONE',  ( 0.0000000000000000000, 1.000000000000000000, 0.0000000000000000000 ) ) ;
#54 = EDGE_LOOP ( 'NONE', ( #149 ) ) ;
#55 = FACE_OUTER_BOUND ( 'NONE', #183, .T. ) ;
#56 = CARTESIAN_POINT ( 'NONE',  ( 1.047444401652940007E-13, -3.673940397442059178E-15, 30.00000000000000000 ) ) ;
#57 = CYLINDRICAL_SURFACE ( 'NONE', #8, 0.4949999999999988853 ) ;
#58 = CARTESIAN_POINT ( 'NONE',  ( 9.978248069715701168E-16, 0.4949999999999988298, 0.2857883832488674059 ) ) ;
#59 =( LENGTH_UNIT ( ) NAMED_UNIT ( * ) SI_UNIT ( .MILLI., .METRE. ) );
#60 = ORGANIZATION ( 'UNSPECIFIED', 'UNSPECIFIED', '' ) ;
#61 = VERTEX_POINT ( 'NONE', #81 ) ;
#62 =( NAMED_UNIT ( * ) PLANE_ANGLE_UNIT ( ) SI_UNIT ( $, .RADIAN. ) );
#63 = APPLICATION_CONTEXT ( 'configuration controlled 3d designs of mechanical parts and assemblies' ) ;
#64 = DATE_AND_TIME ( #100, #87 ) ;
#65 = LOCAL_TIME ( 7, 54, 7.000000000000000000, #158 ) ;
#66 = APPROVAL_PERSON_ORGANIZATION ( #154, #221, #117 ) ;
#67 = PERSON_AND_ORGANIZATION ( #185, #60 ) ;
#68 = PERSON_AND_ORGANIZATION_ROLE ( 'classification_officer' ) ;
#69 = LOCAL_TIME ( 7, 54, 7.000000000000000000, #220 ) ;
#70 = CC_DESIGN_PERSON_AND_ORGANIZATION_ASSIGNMENT ( #85, #169, ( #127 ) ) ;
#71 = DATE_AND_TIME ( #223, #65 ) ;
#72 = EDGE_LOOP ( 'NONE', ( #111 ) ) ;
#73 = EDGE_LOOP ( 'NONE', ( #222 ) ) ;
#74 = FACE_BOUND ( 'NONE', #92, .T. ) ;
#75 = CC_DESIGN_DATE_AND_TIME_ASSIGNMENT ( #105, #157, ( #162 ) ) ;
#76 = DIRECTION ( 'NONE',  ( 0.0000000000000000000, 1.000000000000000000, 0.0000000000000000000 ) ) ;
#77 = ORIENTED_EDGE ( 'NONE', *, *, #39, .T. ) ;
#78 = AXIS2_PLACEMENT_3D ( 'NONE', #120, #82, #205 ) ;
#79 = FACE_OUTER_BOUND ( 'NONE', #24, .T. ) ;
#80 = FACE_OUTER_BOUND ( 'NONE', #54, .T. ) ;
#81 = CARTESIAN_POINT ( 'NONE',  ( 3.296542493308971478E-14, 0.7499999999999963363, 9.441672955930066280 ) ) ;
#82 = DIRECTION ( 'NONE',  ( -3.491481338843133355E-15, 1.224646799147353207E-16, -1.000000000000000000 ) ) ;
#83 = CC_DESIGN_APPROVAL ( #218, ( #162 ) ) ;
#84 = VERTEX_POINT ( 'NONE', #28 ) ;
#85 = PERSON_AND_ORGANIZATION ( #185, #60 ) ;
#86 = VERTEX_POINT ( 'NONE', #58 ) ;
#87 = LOCAL_TIME ( 7, 54, 7.000000000000000000, #192 ) ;
#88 = COORDINATED_UNIVERSAL_TIME_OFFSET ( 1, 0, .AHEAD. ) ;
#89 = APPROVAL_DATE_TIME ( #71, #218 ) ;
#90 = EDGE_CURVE ( 'NONE', #86, #86, #108, .T. ) ;
#91 = DIRECTION ( 'NONE',  ( -3.491481338843133355E-15, 1.224646799147353207E-16, -1.000000000000000000 ) ) ;
#92 = EDGE_LOOP ( 'NONE', ( #52 ) ) ;
#93 = DIRECTION ( 'NONE',  ( -3.491481338843133355E-15, 1.224646799147353207E-16, -1.000000000000000000 ) ) ;
#94 = CYLINDRICAL_SURFACE ( 'NONE', #195, 0.7499999999999986677 ) ;
#95 = CC_DESIGN_PERSON_AND_ORGANIZATION_ASSIGNMENT ( #67, #68, ( #162 ) ) ;
#96 = DESIGN_CONTEXT ( 'detailed design', #63, 'design' ) ;
#97 = DIRECTION ( 'NONE',  ( 4.275831445896958607E-31, 1.000000000000000000, 1.224646799147353207E-16 ) ) ;
#98 = APPLICATION_PROTOCOL_DEFINITION ( 'international standard', 'config_control_design', 1994, #137 ) ;
#99 = EDGE_CURVE ( 'NONE', #193, #193, #7, .T. ) ;
#100 = CALENDAR_DATE ( 2021, 8, 10 ) ;
#101 = AXIS2_PLACEMENT_3D ( 'NONE', #199, #40, #181 ) ;
#102 = DIRECTION ( 'NONE',  ( 0.0000000000000000000, -1.000000000000000000, 0.0000000000000000000 ) ) ;
#103 = DATE_TIME_ROLE ( 'creation_date' ) ;
#104 = ADVANCED_FACE ( 'NONE', ( #46, #55 ), #94, .T. ) ;
#105 = DATE_AND_TIME ( #33, #109 ) ;
#106 = APPROVAL_STATUS ( 'not_yet_approved' ) ;
#107 = ORIENTED_EDGE ( 'NONE', *, *, #182, .T. ) ;
#108 = CIRCLE ( 'NONE', #38, 0.4949999999999988298 ) ;
#109 = LOCAL_TIME ( 7, 54, 7.000000000000000000, #88 ) ;
#110 = ORIENTED_EDGE ( 'NONE', *, *, #99, .T. ) ;
#111 = ORIENTED_EDGE ( 'NONE', *, *, #49, .F. ) ;
#112 = FACE_OUTER_BOUND ( 'NONE', #2, .T. ) ;
#113 = DIRECTION ( 'NONE',  ( -3.491481338843133355E-15, 1.224646799147353207E-16, -1.000000000000000000 ) ) ;
#114 = ADVANCED_FACE ( 'NONE', ( #215, #23 ), #57, .T. ) ;
#115 = DIRECTION ( 'NONE',  ( -3.491481338843133355E-15, 1.224646799147353207E-16, -1.000000000000000000 ) ) ;
#116 = AXIS2_PLACEMENT_3D ( 'NONE', #56, #212, #186 ) ;
#117 = APPROVAL_ROLE ( '' ) ;
#118 = CARTESIAN_POINT ( 'NONE',  ( 3.142333204958820020E-14, 3.711905462088074726E-33, 9.000000000000000000 ) ) ;
#119 = AXIS2_PLACEMENT_3D ( 'NONE', #41, #4, #53 ) ;
#120 = CARTESIAN_POINT ( 'NONE',  ( 3.142333204958820020E-14, -1.102182119232617714E-15, 9.000000000000000000 ) ) ;
#121 = COORDINATED_UNIVERSAL_TIME_OFFSET ( 1, 0, .AHEAD. ) ;
#122 = SECURITY_CLASSIFICATION_LEVEL ( 'unclassified' ) ;
#123 = CIRCLE ( 'NONE', #16, 0.4949999999999991074 ) ;
#124 = ADVANCED_BREP_SHAPE_REPRESENTATION ( '61003', ( #175, #180, #20 ), #184 ) ;
#125 = APPROVAL_PERSON_ORGANIZATION ( #156, #200, #219 ) ;
#126 = EDGE_LOOP ( 'NONE', ( #77 ) ) ;
#127 = PRODUCT ( '61003', '61003', '', ( #31 ) ) ;
#128 = DIRECTION ( 'NONE',  ( -3.491481338843133355E-15, 1.224646799147353207E-16, -1.000000000000000000 ) ) ;
#129 = EDGE_LOOP ( 'NONE', ( #25 ) ) ;
#130 = DIRECTION ( 'NONE',  ( -3.491481338843133355E-15, 1.224646799147353207E-16, -1.000000000000000000 ) ) ;
#131 = DIRECTION ( 'NONE',  ( -3.491481338843133355E-15, 1.224646799147353207E-16, -1.000000000000000000 ) ) ;
#132 = CARTESIAN_POINT ( 'NONE',  ( 0.0000000000000000000, 0.0000000000000000000, 0.0000000000000000000 ) ) ;
#133 = AXIS2_PLACEMENT_3D ( 'NONE', #45, #113, #211 ) ;
#134 = LOCAL_TIME ( 7, 54, 7.000000000000000000, #121 ) ;
#135 = VERTEX_POINT ( 'NONE', #216 ) ;
#136 = DIRECTION ( 'NONE',  ( -4.275831445896958607E-31, -1.000000000000000000, -1.224646799147353207E-16 ) ) ;
#137 = APPLICATION_CONTEXT ( 'configuration controlled 3d designs of mechanical parts and assemblies' ) ;
#138 = CARTESIAN_POINT ( 'NONE',  ( 3.142333204958820020E-14, 0.4949999999999980527, 9.000000000000000000 ) ) ;
#139 = PRODUCT_DEFINITION ( 'UNKNOWN', '', #43, #96 ) ;
#140 = APPROVAL_DATE_TIME ( #64, #221 ) ;
#141 = CC_DESIGN_DATE_AND_TIME_ASSIGNMENT ( #32, #103, ( #139 ) ) ;
#142 = PERSON_AND_ORGANIZATION_ROLE ( 'creator' ) ;
#143 = SHAPE_DEFINITION_REPRESENTATION ( #30, #124 ) ;
#144 = ORIENTED_EDGE ( 'NONE', *, *, #39, .F. ) ;
#145 = EDGE_LOOP ( 'NONE', ( #35 ) ) ;
#146 = DIRECTION ( 'NONE',  ( 0.0000000000000000000, 1.000000000000000000, 0.0000000000000000000 ) ) ;
#147 = CARTESIAN_POINT ( 'NONE',  ( 3.142333204958820020E-14, 3.711905462088074726E-33, 9.000000000000000000 ) ) ;
#148 = PLANE ( 'NONE',  #166 ) ;
#149 = ORIENTED_EDGE ( 'NONE', *, *, #90, .T. ) ;
#150 = VERTEX_POINT ( 'NONE', #138 ) ;
#151 = CC_DESIGN_SECURITY_CLASSIFICATION ( #162, ( #43 ) ) ;
#152 =( NAMED_UNIT ( * ) SI_UNIT ( $, .STERADIAN. ) SOLID_ANGLE_UNIT ( ) );
#153 = ADVANCED_FACE ( 'NONE', ( #80 ), #171, .T. ) ;
#154 = PERSON_AND_ORGANIZATION ( #185, #60 ) ;
#155 = CIRCLE ( 'NONE', #206, 0.7499999999999975575 ) ;
#156 = PERSON_AND_ORGANIZATION ( #185, #60 ) ;
#157 = DATE_TIME_ROLE ( 'classification_date' ) ;
#158 = COORDINATED_UNIVERSAL_TIME_OFFSET ( 1, 0, .AHEAD. ) ;
#159 = PERSON_AND_ORGANIZATION_ROLE ( 'design_supplier' ) ;
#160 = CIRCLE ( 'NONE', #78, 0.4949999999999991074 ) ;
#161 = CARTESIAN_POINT ( 'NONE',  ( 1.047444401652940007E-13, 4.874219293650981803E-33, 30.00000000000000000 ) ) ;
#162 = SECURITY_CLASSIFICATION ( '', '', #122 ) ;
#163 = EDGE_LOOP ( 'NONE', ( #144 ) ) ;
#164 = CARTESIAN_POINT ( 'NONE',  ( 3.142333204958820020E-14, -1.102182119232617714E-15, 9.000000000000000000 ) ) ;
#165 = DIRECTION ( 'NONE',  ( 4.275831445896959482E-31, 1.000000000000000000, 1.224646799147353207E-16 ) ) ;
#166 = AXIS2_PLACEMENT_3D ( 'NONE', #147, #3, #201 ) ;
#167 = AXIS2_PLACEMENT_3D ( 'NONE', #207, #13, #102 ) ;
#168 = ADVANCED_FACE ( 'NONE', ( #74, #12 ), #190, .T. ) ;
#169 = PERSON_AND_ORGANIZATION_ROLE ( 'design_owner' ) ;
#170 = DIRECTION ( 'NONE',  ( 3.491481338843133355E-15, -1.224646799147353207E-16, 1.000000000000000000 ) ) ;
#171 = CONICAL_SURFACE ( 'NONE', #101, 0.4949999999999988298, 1.047197551196592746 ) ;
#172 = CC_DESIGN_PERSON_AND_ORGANIZATION_ASSIGNMENT ( #19, #142, ( #43 ) ) ;
#173 = APPLICATION_PROTOCOL_DEFINITION ( 'international standard', 'config_control_design', 1994, #63 ) ;
#174 = CALENDAR_DATE ( 2021, 8, 10 ) ;
#175 = MANIFOLD_SOLID_BREP ( 'Corps-Déplacer/Copier1[1]', #9 ) ;
#176 = CLOSED_SHELL ( 'NONE', ( #153, #114, #179 ) ) ;
#177 = DATE_AND_TIME ( #174, #69 ) ;
#178 = APPROVAL_STATUS ( 'not_yet_approved' ) ;
#179 = ADVANCED_FACE ( 'NONE', ( #47 ), #14, .T. ) ;
#180 = MANIFOLD_SOLID_BREP ( 'Corps-Déplacer/Copier1[2]', #176 ) ;
#181 = DIRECTION ( 'NONE',  ( -3.890767564418667277E-31, -1.000000000000000000, -1.095153709581320140E-16 ) ) ;
#182 = EDGE_CURVE ( 'NONE', #150, #150, #160, .T. ) ;
#183 = EDGE_LOOP ( 'NONE', ( #110 ) ) ;
#184 =( GEOMETRIC_REPRESENTATION_CONTEXT ( 3 ) GLOBAL_UNCERTAINTY_ASSIGNED_CONTEXT ( ( #188 ) ) GLOBAL_UNIT_ASSIGNED_CONTEXT ( ( #59, #62, #152 ) ) REPRESENTATION_CONTEXT ( 'NONE', 'WORKASPACE' ) );
#185 = PERSON ( 'UNSPECIFIED', 'UNSPECIFIED', 'UNSPECIFIED', ('UNSPECIFIED'), ('UNSPECIFIED'), ('UNSPECIFIED') ) ;
#186 = DIRECTION ( 'NONE',  ( 0.0000000000000000000, 1.000000000000000000, 0.0000000000000000000 ) ) ;
#187 = CARTESIAN_POINT ( 'NONE',  ( 3.296542493308971478E-14, -1.156271456407588461E-15, 9.441672955930066280 ) ) ;
#188 = UNCERTAINTY_MEASURE_WITH_UNIT (LENGTH_MEASURE( 1.000000000000000082E-05 ), #59, 'distance_accuracy_value', 'NONE');
#189 = CARTESIAN_POINT ( 'NONE',  ( 0.0000000000000000000, 0.0000000000000000000, 0.0000000000000000000 ) ) ;
#190 = CONICAL_SURFACE ( 'NONE', #167, 0.7499999999999975575, 0.5235987755982932645 ) ;
#191 = CARTESIAN_POINT ( 'NONE',  ( 0.0000000000000000000, 0.0000000000000000000, 0.0000000000000000000 ) ) ;
#192 = COORDINATED_UNIVERSAL_TIME_OFFSET ( 1, 0, .AHEAD. ) ;
#193 = VERTEX_POINT ( 'NONE', #48 ) ;
#194 = AXIS2_PLACEMENT_3D ( 'NONE', #161, #131, #97 ) ;
#195 = AXIS2_PLACEMENT_3D ( 'NONE', #189, #115, #165 ) ;
#196 = CALENDAR_DATE ( 2021, 8, 10 ) ;
#197 = APPROVAL_ROLE ( '' ) ;
#198 = CC_DESIGN_APPROVAL ( #221, ( #139 ) ) ;
#199 = CARTESIAN_POINT ( 'NONE',  ( 9.978248069715699196E-16, -3.499898287792225014E-17, 0.2857883832488673503 ) ) ;
#200 = APPROVAL ( #106, 'UNSPECIFIED' ) ;
#201 = DIRECTION ( 'NONE',  ( -4.275831445896958607E-31, -1.000000000000000000, -1.224646799147353207E-16 ) ) ;
#202 = APPROVAL_PERSON_ORGANIZATION ( #36, #218, #197 ) ;
#203 = DIRECTION ( 'NONE',  ( 3.890767564418667277E-31, 1.000000000000000000, 1.095153709581320140E-16 ) ) ;
#204 = DIRECTION ( 'NONE',  ( 4.275831445896958607E-31, 1.000000000000000000, 1.224646799147353207E-16 ) ) ;
#205 = DIRECTION ( 'NONE',  ( 0.0000000000000000000, 1.000000000000000000, 0.0000000000000000000 ) ) ;
#206 = AXIS2_PLACEMENT_3D ( 'NONE', #187, #93, #76 ) ;
#207 = CARTESIAN_POINT ( 'NONE',  ( 3.296542493308971478E-14, -1.156271456407588461E-15, 9.441672955930066280 ) ) ;
#208 = PERSON_AND_ORGANIZATION ( #185, #60 ) ;
#209 = CIRCLE ( 'NONE', #116, 0.6500000000000000222 ) ;
#210 = PLANE ( 'NONE',  #194 ) ;
#211 = DIRECTION ( 'NONE',  ( 0.0000000000000000000, 1.000000000000000000, 0.0000000000000000000 ) ) ;
#212 = DIRECTION ( 'NONE',  ( -3.491481338843133355E-15, 1.224646799147353207E-16, -1.000000000000000000 ) ) ;
#213 = CONICAL_SURFACE ( 'NONE', #119, 0.6500000000000000222, 0.7853981633974510546 ) ;
#214 = CC_DESIGN_PERSON_AND_ORGANIZATION_ASSIGNMENT ( #208, #50, ( #139 ) ) ;
#215 = FACE_OUTER_BOUND ( 'NONE', #21, .T. ) ;
#216 = CARTESIAN_POINT ( 'NONE',  ( 3.142333204958820020E-14, 0.4949999999999980527, 9.000000000000000000 ) ) ;
#217 = APPROVAL_STATUS ( 'not_yet_approved' ) ;
#218 = APPROVAL ( #178, 'UNSPECIFIED' ) ;
#219 = APPROVAL_ROLE ( '' ) ;
#220 = COORDINATED_UNIVERSAL_TIME_OFFSET ( 1, 0, .AHEAD. ) ;
#221 = APPROVAL ( #217, 'UNSPECIFIED' ) ;
#222 = ORIENTED_EDGE ( 'NONE', *, *, #5, .T. ) ;
#223 = CALENDAR_DATE ( 2021, 8, 10 ) ;
ENDSEC;
END-ISO-10303-21;
