ISO-10303-21;
HEADER;
FILE_DESCRIPTION (( 'STEP AP203' ),
    '1' );
FILE_NAME ('60949.step',
    '2021-11-17T10:20:14',
    ( '' ),
    ( '' ),
    'SwSTEP 2.0',
    'SolidWorks 2019',
    '' );
FILE_SCHEMA (( 'CONFIG_CONTROL_DESIGN' ));
ENDSEC;

DATA;
#1 = ADVANCED_FACE ( 'NONE', ( #7, #183 ), #28, .T. ) ;
#2 = VERTEX_POINT ( 'NONE', #57 ) ;
#3 = LOCAL_TIME ( 11, 20, 14.00000000000000000, #62 ) ;
#4 = EDGE_LOOP ( 'NONE', ( #92 ) ) ;
#5 = PERSON_AND_ORGANIZATION ( #162, #193 ) ;
#6 = PRODUCT_DEFINITION_FORMATION_WITH_SPECIFIED_SOURCE ( 'ANY', '', #116, .NOT_KNOWN. ) ;
#7 = FACE_OUTER_BOUND ( 'NONE', #203, .T. ) ;
#8 = DATE_AND_TIME ( #114, #3 ) ;
#9 = DATE_TIME_ROLE ( 'classification_date' ) ;
#10 = CC_DESIGN_APPROVAL ( #194, ( #95 ) ) ;
#11 = DIRECTION ( 'NONE',  ( -3.491481338843133355E-15, 1.224646799147353207E-16, -1.000000000000000000 ) ) ;
#12 = CARTESIAN_POINT ( 'NONE',  ( 2.880472104545584703E-13, -1.010333609296566392E-14, 82.50000000000000000 ) ) ;
#13 = CARTESIAN_POINT ( 'NONE',  ( -1.282749433769087757E-30, 4.499279347985572824E-32, -3.673940397442059868E-16 ) ) ;
#14 = AXIS2_PLACEMENT_3D ( 'NONE', #13, #220, #119 ) ;
#15 = DIRECTION ( 'NONE',  ( 3.491481338843133355E-15, -1.224646799147353207E-16, 1.000000000000000000 ) ) ;
#16 = APPLICATION_CONTEXT ( 'configuration controlled 3d designs of mechanical parts and assemblies' ) ;
#17 = DIRECTION ( 'NONE',  ( 4.275831445896958607E-31, 1.000000000000000000, 1.224646799147353207E-16 ) ) ;
#18 =( NAMED_UNIT ( * ) PLANE_ANGLE_UNIT ( ) SI_UNIT ( $, .RADIAN. ) );
#19 = CONICAL_SURFACE ( 'NONE', #74, 6.000000000000000888, 0.7853981633974491672 ) ;
#20 = LOCAL_TIME ( 11, 20, 14.00000000000000000, #70 ) ;
#21 = APPROVAL ( #104, 'UNSPECIFIED' ) ;
#22 = DATE_AND_TIME ( #142, #20 ) ;
#23 = EDGE_CURVE ( 'NONE', #219, #219, #148, .T. ) ;
#24 = DIRECTION ( 'NONE',  ( 4.275831445896959482E-31, 1.000000000000000000, 1.224646799147353207E-16 ) ) ;
#25 = PERSON_AND_ORGANIZATION ( #162, #193 ) ;
#26 = EDGE_CURVE ( 'NONE', #208, #208, #118, .T. ) ;
#27 = ADVANCED_BREP_SHAPE_REPRESENTATION ( '60949', ( #154, #149, #186 ), #174 ) ;
#28 = CYLINDRICAL_SURFACE ( 'NONE', #105, 6.000000000000000000 ) ;
#29 = CARTESIAN_POINT ( 'NONE',  ( -2.466354574662848092E-30, 8.603270578922441165E-32, -7.063920254203763409E-16 ) ) ;
#30 = AXIS2_PLACEMENT_3D ( 'NONE', #187, #122, #120 ) ;
#31 = DIRECTION ( 'NONE',  ( -3.491481338843133355E-15, 1.224646799147353207E-16, -1.000000000000000000 ) ) ;
#32 = DIRECTION ( 'NONE',  ( -4.275831445896958607E-31, -1.000000000000000000, -1.224646799147353207E-16 ) ) ;
#33 = CARTESIAN_POINT ( 'NONE',  ( -4.932709149325696185E-30, -5.799999999999999822, -1.412784050840752682E-15 ) ) ;
#34 = CLOSED_SHELL ( 'NONE', ( #125, #1, #50, #209 ) ) ;
#35 = FACE_BOUND ( 'NONE', #41, .T. ) ;
#36 = COORDINATED_UNIVERSAL_TIME_OFFSET ( 1, 0, .AHEAD. ) ;
#37 = EDGE_CURVE ( 'NONE', #85, #85, #144, .T. ) ;
#38 = AXIS2_PLACEMENT_3D ( 'NONE', #155, #31, #48 ) ;
#39 = DIRECTION ( 'NONE',  ( 0.0000000000000000000, 0.0000000000000000000, 1.000000000000000000 ) ) ;
#40 = CARTESIAN_POINT ( 'NONE',  ( 0.0000000000000000000, 0.0000000000000000000, 0.0000000000000000000 ) ) ;
#41 = EDGE_LOOP ( 'NONE', ( #91 ) ) ;
#42 = APPROVAL_DATE_TIME ( #146, #81 ) ;
#43 = ORIENTED_EDGE ( 'NONE', *, *, #96, .T. ) ;
#44 = CALENDAR_DATE ( 2021, 17, 11 ) ;
#45 = ORIENTED_EDGE ( 'NONE', *, *, #26, .F. ) ;
#46 = DIRECTION ( 'NONE',  ( -3.491481338843133355E-15, 1.224646799147353207E-16, -1.000000000000000000 ) ) ;
#47 = PERSON_AND_ORGANIZATION_ROLE ( 'classification_officer' ) ;
#48 = DIRECTION ( 'NONE',  ( 4.275831445896959482E-31, 1.000000000000000000, 1.224646799147353207E-16 ) ) ;
#49 = FACE_OUTER_BOUND ( 'NONE', #107, .T. ) ;
#50 = ADVANCED_FACE ( 'NONE', ( #97, #173 ), #19, .T. ) ;
#51 = CARTESIAN_POINT ( 'NONE',  ( 2.897929511239800811E-13, 5.499999999999989342, 83.00000000000000000 ) ) ;
#52 = CARTESIAN_POINT ( 'NONE',  ( 8.728703347107833388E-14, 4.499279347985567350E-32, 25.00000000000000000 ) ) ;
#53 = CIRCLE ( 'NONE', #72, 6.000000000000000000 ) ;
#54 = LOCAL_TIME ( 11, 20, 14.00000000000000000, #108 ) ;
#55 = FACE_OUTER_BOUND ( 'NONE', #132, .T. ) ;
#56 = ADVANCED_FACE ( 'NONE', ( #82 ), #139, .T. ) ;
#57 = CARTESIAN_POINT ( 'NONE',  ( 2.880472104545584703E-13, 5.999999999999990230, 82.50000000000000000 ) ) ;
#58 = CARTESIAN_POINT ( 'NONE',  ( 6.982962677686222337E-16, -6.000000000000000000, 0.1999999999999987066 ) ) ;
#59 = EDGE_LOOP ( 'NONE', ( #45 ) ) ;
#60 = EDGE_LOOP ( 'NONE', ( #214 ) ) ;
#61 = APPROVAL_PERSON_ORGANIZATION ( #184, #81, #93 ) ;
#62 = COORDINATED_UNIVERSAL_TIME_OFFSET ( 1, 0, .AHEAD. ) ;
#63 = FACE_OUTER_BOUND ( 'NONE', #134, .T. ) ;
#64 = CARTESIAN_POINT ( 'NONE',  ( 2.880472104545584703E-13, -1.010333609296566392E-14, 82.50000000000000000 ) ) ;
#65 = CARTESIAN_POINT ( 'NONE',  ( 8.728703347107833388E-14, 5.999999999999996447, 25.00000000000000000 ) ) ;
#66 = CARTESIAN_POINT ( 'NONE',  ( 8.728703347107833388E-14, -3.061616997868383043E-15, 25.00000000000000000 ) ) ;
#67 = CC_DESIGN_PERSON_AND_ORGANIZATION_ASSIGNMENT ( #133, #112, ( #6 ) ) ;
#68 = PLANE ( 'NONE',  #222 ) ;
#69 = CALENDAR_DATE ( 2021, 17, 11 ) ;
#70 = COORDINATED_UNIVERSAL_TIME_OFFSET ( 1, 0, .AHEAD. ) ;
#71 = APPROVAL_DATE_TIME ( #22, #21 ) ;
#72 = AXIS2_PLACEMENT_3D ( 'NONE', #137, #206, #83 ) ;
#73 = CC_DESIGN_PERSON_AND_ORGANIZATION_ASSIGNMENT ( #5, #130, ( #6 ) ) ;
#74 = AXIS2_PLACEMENT_3D ( 'NONE', #64, #140, #98 ) ;
#75 = CARTESIAN_POINT ( 'NONE',  ( 8.728703347107833388E-14, -3.061616997868383043E-15, 25.00000000000000000 ) ) ;
#76 = DESIGN_CONTEXT ( 'detailed design', #16, 'design' ) ;
#77 = ORIENTED_EDGE ( 'NONE', *, *, #211, .T. ) ;
#78 = APPROVAL_ROLE ( '' ) ;
#79 = DIRECTION ( 'NONE',  ( 0.0000000000000000000, 1.000000000000000000, 0.0000000000000000000 ) ) ;
#80 = DIRECTION ( 'NONE',  ( -3.491481338843133355E-15, 1.224646799147353207E-16, -1.000000000000000000 ) ) ;
#81 = APPROVAL ( #166, 'UNSPECIFIED' ) ;
#82 = FACE_OUTER_BOUND ( 'NONE', #199, .T. ) ;
#83 = DIRECTION ( 'NONE',  ( -4.172848212839010723E-31, -1.000000000000000000, -1.219727444046192488E-16 ) ) ;
#84 = EDGE_CURVE ( 'NONE', #99, #99, #127, .T. ) ;
#85 = VERTEX_POINT ( 'NONE', #33 ) ;
#86 =( LENGTH_UNIT ( ) NAMED_UNIT ( * ) SI_UNIT ( .MILLI., .METRE. ) );
#87 = APPROVAL_ROLE ( '' ) ;
#88 = PRODUCT_DEFINITION ( 'UNKNOWN', '', #6, #76 ) ;
#89 = AXIS2_PLACEMENT_3D ( 'NONE', #75, #135, #171 ) ;
#90 = APPROVAL_PERSON_ORGANIZATION ( #25, #194, #78 ) ;
#91 = ORIENTED_EDGE ( 'NONE', *, *, #37, .T. ) ;
#92 = ORIENTED_EDGE ( 'NONE', *, *, #211, .F. ) ;
#93 = APPROVAL_ROLE ( '' ) ;
#94 = AXIS2_PLACEMENT_3D ( 'NONE', #52, #150, #207 ) ;
#95 = SECURITY_CLASSIFICATION ( '', '', #215 ) ;
#96 = EDGE_CURVE ( 'NONE', #221, #221, #53, .T. ) ;
#97 = FACE_BOUND ( 'NONE', #216, .T. ) ;
#98 = DIRECTION ( 'NONE',  ( 0.0000000000000000000, 1.000000000000000000, 0.0000000000000000000 ) ) ;
#99 = VERTEX_POINT ( 'NONE', #156 ) ;
#100 = LOCAL_TIME ( 11, 20, 14.00000000000000000, #36 ) ;
#101 = CARTESIAN_POINT ( 'NONE',  ( 2.897929511239800811E-13, -1.016456843292303150E-14, 83.00000000000000000 ) ) ;
#102 = CC_DESIGN_APPROVAL ( #21, ( #88 ) ) ;
#103 = PRODUCT_RELATED_PRODUCT_CATEGORY ( 'detail', '', ( #116 ) ) ;
#104 = APPROVAL_STATUS ( 'not_yet_approved' ) ;
#105 = AXIS2_PLACEMENT_3D ( 'NONE', #205, #46, #24 ) ;
#106 = CC_DESIGN_APPROVAL ( #81, ( #6 ) ) ;
#107 = EDGE_LOOP ( 'NONE', ( #181 ) ) ;
#108 = COORDINATED_UNIVERSAL_TIME_OFFSET ( 1, 0, .AHEAD. ) ;
#109 = SHAPE_DEFINITION_REPRESENTATION ( #182, #27 ) ;
#110 = CC_DESIGN_SECURITY_CLASSIFICATION ( #95, ( #6 ) ) ;
#111 = EDGE_LOOP ( 'NONE', ( #128 ) ) ;
#112 = PERSON_AND_ORGANIZATION_ROLE ( 'design_supplier' ) ;
#113 = EDGE_LOOP ( 'NONE', ( #178 ) ) ;
#114 = CALENDAR_DATE ( 2021, 17, 11 ) ;
#115 = ORIENTED_EDGE ( 'NONE', *, *, #84, .T. ) ;
#116 = PRODUCT ( '60949', '60949', '', ( #157 ) ) ;
#117 = CC_DESIGN_PERSON_AND_ORGANIZATION_ASSIGNMENT ( #161, #126, ( #116 ) ) ;
#118 = CIRCLE ( 'NONE', #141, 5.500000000000000000 ) ;
#119 = DIRECTION ( 'NONE',  ( 4.275831445896958607E-31, 1.000000000000000000, 1.224646799147353207E-16 ) ) ;
#120 = DIRECTION ( 'NONE',  ( -4.172848212839010723E-31, -1.000000000000000000, -1.219727444046192488E-16 ) ) ;
#121 = FACE_OUTER_BOUND ( 'NONE', #113, .T. ) ;
#122 = DIRECTION ( 'NONE',  ( 3.491481338843133355E-15, -1.217917285207545432E-16, 1.000000000000000000 ) ) ;
#123 = DIRECTION ( 'NONE',  ( 0.0000000000000000000, 1.000000000000000000, 0.0000000000000000000 ) ) ;
#124 = APPLICATION_PROTOCOL_DEFINITION ( 'international standard', 'config_control_design', 1994, #170 ) ;
#125 = ADVANCED_FACE ( 'NONE', ( #49 ), #68, .F. ) ;
#126 = PERSON_AND_ORGANIZATION_ROLE ( 'design_owner' ) ;
#127 = CIRCLE ( 'NONE', #172, 6.000000000000000000 ) ;
#128 = ORIENTED_EDGE ( 'NONE', *, *, #23, .F. ) ;
#129 = APPROVAL_STATUS ( 'not_yet_approved' ) ;
#130 = PERSON_AND_ORGANIZATION_ROLE ( 'creator' ) ;
#131 = UNCERTAINTY_MEASURE_WITH_UNIT (LENGTH_MEASURE( 1.000000000000000082E-05 ), #86, 'distance_accuracy_value', 'NONE');
#132 = EDGE_LOOP ( 'NONE', ( #43 ) ) ;
#133 = PERSON_AND_ORGANIZATION ( #162, #193 ) ;
#134 = EDGE_LOOP ( 'NONE', ( #115 ) ) ;
#135 = DIRECTION ( 'NONE',  ( -3.491481338843133355E-15, 1.224646799147353207E-16, -1.000000000000000000 ) ) ;
#136 = CONICAL_SURFACE ( 'NONE', #30, 6.000000000000000000, 0.7853981633974492782 ) ;
#137 = CARTESIAN_POINT ( 'NONE',  ( 6.982962677686246989E-16, -2.435834570415083839E-17, 0.1999999999999994282 ) ) ;
#138 = FACE_OUTER_BOUND ( 'NONE', #59, .T. ) ;
#139 = PLANE ( 'NONE',  #94 ) ;
#140 = DIRECTION ( 'NONE',  ( -3.491481338843133355E-15, 1.224646799147353207E-16, -1.000000000000000000 ) ) ;
#141 = AXIS2_PLACEMENT_3D ( 'NONE', #101, #210, #79 ) ;
#142 = CALENDAR_DATE ( 2021, 17, 11 ) ;
#143 = PERSON_AND_ORGANIZATION ( #162, #193 ) ;
#144 = CIRCLE ( 'NONE', #152, 5.799999999999999822 ) ;
#145 = ADVANCED_FACE ( 'NONE', ( #35, #217 ), #136, .T. ) ;
#146 = DATE_AND_TIME ( #204, #54 ) ;
#147 = APPROVAL_DATE_TIME ( #180, #194 ) ;
#148 = CIRCLE ( 'NONE', #89, 6.000000000000000000 ) ;
#149 = MANIFOLD_SOLID_BREP ( 'Corps-Déplacer/Copier1[2]', #185 ) ;
#150 = DIRECTION ( 'NONE',  ( 3.491481338843133355E-15, -1.224646799147353207E-16, 1.000000000000000000 ) ) ;
#151 = PLANE ( 'NONE',  #200 ) ;
#152 = AXIS2_PLACEMENT_3D ( 'NONE', #29, #153, #191 ) ;
#153 = DIRECTION ( 'NONE',  ( 3.491481338843133355E-15, -1.217917285207545432E-16, 1.000000000000000000 ) ) ;
#154 = MANIFOLD_SOLID_BREP ( 'Corps-Déplacer/Copier1[1]', #34 ) ;
#155 = CARTESIAN_POINT ( 'NONE',  ( 0.0000000000000000000, 0.0000000000000000000, 0.0000000000000000000 ) ) ;
#156 = CARTESIAN_POINT ( 'NONE',  ( 8.728703347107833388E-14, 5.999999999999996447, 25.00000000000000000 ) ) ;
#157 = MECHANICAL_CONTEXT ( 'NONE', #170, 'mechanical' ) ;
#158 = AXIS2_PLACEMENT_3D ( 'NONE', #12, #218, #123 ) ;
#159 = LOCAL_TIME ( 11, 20, 14.00000000000000000, #198 ) ;
#160 = DIRECTION ( 'NONE',  ( 1.000000000000000000, 0.0000000000000000000, 0.0000000000000000000 ) ) ;
#161 = PERSON_AND_ORGANIZATION ( #162, #193 ) ;
#162 = PERSON ( 'UNSPECIFIED', 'UNSPECIFIED', 'UNSPECIFIED', ('UNSPECIFIED'), ('UNSPECIFIED'), ('UNSPECIFIED') ) ;
#163 = CC_DESIGN_PERSON_AND_ORGANIZATION_ASSIGNMENT ( #143, #192, ( #88 ) ) ;
#164 = DATE_TIME_ROLE ( 'creation_date' ) ;
#165 = CIRCLE ( 'NONE', #158, 6.000000000000000888 ) ;
#166 = APPROVAL_STATUS ( 'not_yet_approved' ) ;
#167 = CC_DESIGN_DATE_AND_TIME_ASSIGNMENT ( #8, #9, ( #95 ) ) ;
#168 = CYLINDRICAL_SURFACE ( 'NONE', #38, 6.000000000000000000 ) ;
#169 = CARTESIAN_POINT ( 'NONE',  ( 2.897929511239800811E-13, 4.124339402320093095E-32, 83.00000000000000000 ) ) ;
#170 = APPLICATION_CONTEXT ( 'configuration controlled 3d designs of mechanical parts and assemblies' ) ;
#171 = DIRECTION ( 'NONE',  ( 0.0000000000000000000, 1.000000000000000000, 0.0000000000000000000 ) ) ;
#172 = AXIS2_PLACEMENT_3D ( 'NONE', #66, #80, #189 ) ;
#173 = FACE_OUTER_BOUND ( 'NONE', #4, .T. ) ;
#174 =( GEOMETRIC_REPRESENTATION_CONTEXT ( 3 ) GLOBAL_UNCERTAINTY_ASSIGNED_CONTEXT ( ( #131 ) ) GLOBAL_UNIT_ASSIGNED_CONTEXT ( ( #86, #18, #176 ) ) REPRESENTATION_CONTEXT ( 'NONE', 'WORKASPACE' ) );
#175 = PLANE ( 'NONE',  #14 ) ;
#176 =( NAMED_UNIT ( * ) SI_UNIT ( $, .STERADIAN. ) SOLID_ANGLE_UNIT ( ) );
#177 = PERSON_AND_ORGANIZATION ( #162, #193 ) ;
#178 = ORIENTED_EDGE ( 'NONE', *, *, #37, .F. ) ;
#179 = PERSON_AND_ORGANIZATION ( #162, #193 ) ;
#180 = DATE_AND_TIME ( #44, #159 ) ;
#181 = ORIENTED_EDGE ( 'NONE', *, *, #23, .T. ) ;
#182 = PRODUCT_DEFINITION_SHAPE ( 'NONE', 'NONE',  #88 ) ;
#183 = FACE_OUTER_BOUND ( 'NONE', #111, .T. ) ;
#184 = PERSON_AND_ORGANIZATION ( #162, #193 ) ;
#185 = CLOSED_SHELL ( 'NONE', ( #195, #56, #145, #202 ) ) ;
#186 = AXIS2_PLACEMENT_3D ( 'NONE', #40, #39, #160 ) ;
#187 = CARTESIAN_POINT ( 'NONE',  ( 6.982962677686246989E-16, -2.435834570415083839E-17, 0.1999999999999994282 ) ) ;
#188 = CC_DESIGN_DATE_AND_TIME_ASSIGNMENT ( #213, #164, ( #88 ) ) ;
#189 = DIRECTION ( 'NONE',  ( 0.0000000000000000000, 1.000000000000000000, 0.0000000000000000000 ) ) ;
#190 = CARTESIAN_POINT ( 'NONE',  ( 8.728703347107833388E-14, 4.499279347985567350E-32, 25.00000000000000000 ) ) ;
#191 = DIRECTION ( 'NONE',  ( -4.252335473556634944E-31, -1.000000000000000000, -1.217917285207545432E-16 ) ) ;
#192 = PERSON_AND_ORGANIZATION_ROLE ( 'creator' ) ;
#193 = ORGANIZATION ( 'UNSPECIFIED', 'UNSPECIFIED', '' ) ;
#194 = APPROVAL ( #129, 'UNSPECIFIED' ) ;
#195 = ADVANCED_FACE ( 'NONE', ( #63, #55 ), #168, .T. ) ;
#196 = ORIENTED_EDGE ( 'NONE', *, *, #84, .F. ) ;
#197 = ORIENTED_EDGE ( 'NONE', *, *, #26, .T. ) ;
#198 = COORDINATED_UNIVERSAL_TIME_OFFSET ( 1, 0, .AHEAD. ) ;
#199 = EDGE_LOOP ( 'NONE', ( #196 ) ) ;
#200 = AXIS2_PLACEMENT_3D ( 'NONE', #169, #11, #17 ) ;
#201 = APPROVAL_PERSON_ORGANIZATION ( #177, #21, #87 ) ;
#202 = ADVANCED_FACE ( 'NONE', ( #121 ), #175, .T. ) ;
#203 = EDGE_LOOP ( 'NONE', ( #77 ) ) ;
#204 = CALENDAR_DATE ( 2021, 17, 11 ) ;
#205 = CARTESIAN_POINT ( 'NONE',  ( 0.0000000000000000000, 0.0000000000000000000, 0.0000000000000000000 ) ) ;
#206 = DIRECTION ( 'NONE',  ( 3.491481338843133355E-15, -1.217917285207545432E-16, 1.000000000000000000 ) ) ;
#207 = DIRECTION ( 'NONE',  ( -4.275831445896958607E-31, -1.000000000000000000, -1.224646799147353207E-16 ) ) ;
#208 = VERTEX_POINT ( 'NONE', #51 ) ;
#209 = ADVANCED_FACE ( 'NONE', ( #138 ), #151, .F. ) ;
#210 = DIRECTION ( 'NONE',  ( -3.491481338843133355E-15, 1.224646799147353207E-16, -1.000000000000000000 ) ) ;
#211 = EDGE_CURVE ( 'NONE', #2, #2, #165, .T. ) ;
#212 = CC_DESIGN_PERSON_AND_ORGANIZATION_ASSIGNMENT ( #179, #47, ( #95 ) ) ;
#213 = DATE_AND_TIME ( #69, #100 ) ;
#214 = ORIENTED_EDGE ( 'NONE', *, *, #96, .F. ) ;
#215 = SECURITY_CLASSIFICATION_LEVEL ( 'unclassified' ) ;
#216 = EDGE_LOOP ( 'NONE', ( #197 ) ) ;
#217 = FACE_OUTER_BOUND ( 'NONE', #60, .T. ) ;
#218 = DIRECTION ( 'NONE',  ( -3.491481338843133355E-15, 1.224646799147353207E-16, -1.000000000000000000 ) ) ;
#219 = VERTEX_POINT ( 'NONE', #65 ) ;
#220 = DIRECTION ( 'NONE',  ( -3.491481338843133355E-15, 1.224646799147353207E-16, -1.000000000000000000 ) ) ;
#221 = VERTEX_POINT ( 'NONE', #58 ) ;
#222 = AXIS2_PLACEMENT_3D ( 'NONE', #190, #15, #32 ) ;
#223 = APPLICATION_PROTOCOL_DEFINITION ( 'international standard', 'config_control_design', 1994, #16 ) ;
ENDSEC;
END-ISO-10303-21;
