ISO-10303-21;
HEADER;
FILE_DESCRIPTION (( 'STEP AP203' ),
    '1' );
FILE_NAME ('60914.step',
    '2021-11-01T12:23:44',
    ( '' ),
    ( '' ),
    'SwSTEP 2.0',
    'SolidWorks 2019',
    '' );
FILE_SCHEMA (( 'CONFIG_CONTROL_DESIGN' ));
ENDSEC;

DATA;
#1 = APPROVAL_STATUS ( 'not_yet_approved' ) ;
#2 = EDGE_LOOP ( 'NONE', ( #153 ) ) ;
#3 = CLOSED_SHELL ( 'NONE', ( #148, #12, #68, #235, #75, #200 ) ) ;
#4 = CARTESIAN_POINT ( 'NONE',  ( -2.458134906540053717E-30, 8.583931372586066874E-32, -7.040378189031167145E-16 ) ) ;
#5 = LOCAL_TIME ( 13, 23, 44.00000000000000000, #20 ) ;
#6 = FACE_OUTER_BOUND ( 'NONE', #211, .T. ) ;
#7 = AXIS2_PLACEMENT_3D ( 'NONE', #141, #218, #194 ) ;
#8 = CC_DESIGN_SECURITY_CLASSIFICATION ( #192, ( #74 ) ) ;
#9 = EDGE_CURVE ( 'NONE', #82, #82, #117, .T. ) ;
#10 = FACE_OUTER_BOUND ( 'NONE', #77, .T. ) ;
#11 = APPROVAL ( #1, 'UNSPECIFIED' ) ;
#12 = ADVANCED_FACE ( 'NONE', ( #92, #208 ), #34, .T. ) ;
#13 = AXIS2_PLACEMENT_3D ( 'NONE', #121, #178, #195 ) ;
#14 = LOCAL_TIME ( 13, 23, 44.00000000000000000, #69 ) ;
#15 = PERSON_AND_ORGANIZATION ( #142, #243 ) ;
#16 = PERSON_AND_ORGANIZATION ( #142, #243 ) ;
#17 = CALENDAR_DATE ( 2021, 1, 11 ) ;
#18 = DATE_TIME_ROLE ( 'creation_date' ) ;
#19 = CC_DESIGN_PERSON_AND_ORGANIZATION_ASSIGNMENT ( #71, #242, ( #74 ) ) ;
#20 = COORDINATED_UNIVERSAL_TIME_OFFSET ( 1, 0, .AHEAD. ) ;
#21 = EDGE_LOOP ( 'NONE', ( #230 ) ) ;
#22 = DIRECTION ( 'NONE',  ( 0.0000000000000000000, -1.000000000000000000, 0.0000000000000000000 ) ) ;
#23 = EDGE_CURVE ( 'NONE', #64, #64, #57, .T. ) ;
#24 = AXIS2_PLACEMENT_3D ( 'NONE', #156, #100, #31 ) ;
#25 = FACE_OUTER_BOUND ( 'NONE', #130, .T. ) ;
#26 = ORIENTED_EDGE ( 'NONE', *, *, #87, .T. ) ;
#27 = CARTESIAN_POINT ( 'NONE',  ( 1.326762908760390423E-13, 8.998558695971051224E-33, 38.00000000000000000 ) ) ;
#28 = FACE_BOUND ( 'NONE', #115, .T. ) ;
#29 = APPLICATION_PROTOCOL_DEFINITION ( 'international standard', 'config_control_design', 1994, #38 ) ;
#30 = CARTESIAN_POINT ( 'NONE',  ( 2.244452867314345661E-14, -1.499999999999995559, 6.428368504635978198 ) ) ;
#31 = DIRECTION ( 'NONE',  ( -4.275831445896958607E-31, -1.000000000000000000, -1.224646799147353207E-16 ) ) ;
#32 = COORDINATED_UNIVERSAL_TIME_OFFSET ( 1, 0, .AHEAD. ) ;
#33 = PERSON_AND_ORGANIZATION ( #142, #243 ) ;
#34 = CONICAL_SURFACE ( 'NONE', #167, 1.199999999999996403, 0.7853981633974461696 ) ;
#35 = CLOSED_SHELL ( 'NONE', ( #174, #80, #151 ) ) ;
#36 = ORIENTED_EDGE ( 'NONE', *, *, #140, .T. ) ;
#37 = DIRECTION ( 'NONE',  ( 3.491481338843133355E-15, -1.219242935835426903E-16, 1.000000000000000000 ) ) ;
#38 = APPLICATION_CONTEXT ( 'configuration controlled 3d designs of mechanical parts and assemblies' ) ;
#39 = FACE_OUTER_BOUND ( 'NONE', #187, .T. ) ;
#40 = EDGE_LOOP ( 'NONE', ( #206 ) ) ;
#41 = CC_DESIGN_APPROVAL ( #118, ( #74 ) ) ;
#42 = FACE_OUTER_BOUND ( 'NONE', #40, .T. ) ;
#43 = ORIENTED_EDGE ( 'NONE', *, *, #124, .F. ) ;
#44 = APPROVAL ( #146, 'UNSPECIFIED' ) ;
#45 = CARTESIAN_POINT ( 'NONE',  ( 5.237222008264692144E-15, -0.2500000000000005551, 1.499999999999997780 ) ) ;
#46 = CARTESIAN_POINT ( 'NONE',  ( 5.237222008264692144E-15, -0.2500000000000005551, 1.499999999999997780 ) ) ;
#47 = CIRCLE ( 'NONE', #125, 0.2500000000000006661 ) ;
#48 = SHAPE_DEFINITION_REPRESENTATION ( #97, #128 ) ;
#49 = CALENDAR_DATE ( 2021, 1, 11 ) ;
#50 = APPROVAL_PERSON_ORGANIZATION ( #15, #118, #126 ) ;
#51 = ORIENTED_EDGE ( 'NONE', *, *, #188, .T. ) ;
#52 = CARTESIAN_POINT ( 'NONE',  ( 5.237222008264697666E-15, 0.0000000000000000000, 1.499999999999999334 ) ) ;
#53 = ORIENTED_EDGE ( 'NONE', *, *, #23, .F. ) ;
#54 = DIRECTION ( 'NONE',  ( 3.491481338843133355E-15, -1.219242935835426903E-16, 1.000000000000000000 ) ) ;
#55 = EDGE_LOOP ( 'NONE', ( #43 ) ) ;
#56 = FACE_OUTER_BOUND ( 'NONE', #213, .T. ) ;
#57 = CIRCLE ( 'NONE', #101, 0.3181483474218609331 ) ;
#58 = DIRECTION ( 'NONE',  ( 4.275831445896958607E-31, 1.000000000000000000, 1.224646799147353207E-16 ) ) ;
#59 = CC_DESIGN_PERSON_AND_ORGANIZATION_ASSIGNMENT ( #70, #184, ( #74 ) ) ;
#60 =( NAMED_UNIT ( * ) PLANE_ANGLE_UNIT ( ) SI_UNIT ( $, .RADIAN. ) );
#61 = FACE_OUTER_BOUND ( 'NONE', #2, .T. ) ;
#62 = MANIFOLD_SOLID_BREP ( 'Corps-Déplacer/Copier1[1]', #3 ) ;
#63 = AXIS2_PLACEMENT_3D ( 'NONE', #234, #86, #102 ) ;
#64 = VERTEX_POINT ( 'NONE', #83 ) ;
#65 = MANIFOLD_SOLID_BREP ( 'Corps-Déplacer/Copier1[2]', #35 ) ;
#66 = SECURITY_CLASSIFICATION_LEVEL ( 'unclassified' ) ;
#67 = CONICAL_SURFACE ( 'NONE', #63, 2.499999999999995559, 0.2617993877991429130 ) ;
#68 = ADVANCED_FACE ( 'NONE', ( #42 ), #120, .F. ) ;
#69 = COORDINATED_UNIVERSAL_TIME_OFFSET ( 1, 0, .AHEAD. ) ;
#70 = PERSON_AND_ORGANIZATION ( #142, #243 ) ;
#71 = PERSON_AND_ORGANIZATION ( #142, #243 ) ;
#72 = ORIENTED_EDGE ( 'NONE', *, *, #124, .T. ) ;
#73 = CYLINDRICAL_SURFACE ( 'NONE', #105, 1.499999999999994671 ) ;
#74 = PRODUCT_DEFINITION_FORMATION_WITH_SPECIFIED_SOURCE ( 'ANY', '', #104, .NOT_KNOWN. ) ;
#75 = ADVANCED_FACE ( 'NONE', ( #56, #39 ), #91, .F. ) ;
#76 = FACE_OUTER_BOUND ( 'NONE', #21, .T. ) ;
#77 = EDGE_LOOP ( 'NONE', ( #26 ) ) ;
#78 = DIRECTION ( 'NONE',  ( -4.256963957985715019E-31, -1.000000000000000000, -1.219242935835426163E-16 ) ) ;
#79 = DIRECTION ( 'NONE',  ( 0.0000000000000000000, -1.000000000000000000, 0.0000000000000000000 ) ) ;
#80 = ADVANCED_FACE ( 'NONE', ( #6, #189 ), #154, .T. ) ;
#81 = AXIS2_PLACEMENT_3D ( 'NONE', #52, #173, #114 ) ;
#82 = VERTEX_POINT ( 'NONE', #45 ) ;
#83 = CARTESIAN_POINT ( 'NONE',  ( 7.044545740489954047E-15, -0.3181483474218612106, 2.017638090205027712 ) ) ;
#84 = PLANE ( 'NONE',  #24 ) ;
#85 = DESIGN_CONTEXT ( 'detailed design', #237, 'design' ) ;
#86 = DIRECTION ( 'NONE',  ( 3.491481338843133355E-15, -1.219242935835426903E-16, 1.000000000000000000 ) ) ;
#87 = EDGE_CURVE ( 'NONE', #219, #219, #133, .T. ) ;
#88 = DATE_AND_TIME ( #107, #164 ) ;
#89 = PERSON_AND_ORGANIZATION ( #142, #243 ) ;
#90 = AXIS2_PLACEMENT_3D ( 'NONE', #27, #149, #58 ) ;
#91 = TOROIDAL_SURFACE ( 'NONE', #81, 2.250000000000000444, 1.999999999999999556 ) ;
#92 = FACE_OUTER_BOUND ( 'NONE', #96, .T. ) ;
#93 = CC_DESIGN_DATE_AND_TIME_ASSIGNMENT ( #88, #18, ( #217 ) ) ;
#94 = CARTESIAN_POINT ( 'NONE',  ( 0.0000000000000000000, 0.0000000000000000000, 0.0000000000000000000 ) ) ;
#95 = PLANE ( 'NONE',  #7 ) ;
#96 = EDGE_LOOP ( 'NONE', ( #136 ) ) ;
#97 = PRODUCT_DEFINITION_SHAPE ( 'NONE', 'NONE',  #217 ) ;
#98 =( GEOMETRIC_REPRESENTATION_CONTEXT ( 3 ) GLOBAL_UNCERTAINTY_ASSIGNED_CONTEXT ( ( #240 ) ) GLOBAL_UNIT_ASSIGNED_CONTEXT ( ( #157, #60, #138 ) ) REPRESENTATION_CONTEXT ( 'NONE', 'WORKASPACE' ) );
#99 = CC_DESIGN_PERSON_AND_ORGANIZATION_ASSIGNMENT ( #16, #223, ( #104 ) ) ;
#100 = DIRECTION ( 'NONE',  ( 3.491481338843133355E-15, -1.224646799147353207E-16, 1.000000000000000000 ) ) ;
#101 = AXIS2_PLACEMENT_3D ( 'NONE', #231, #227, #79 ) ;
#102 = DIRECTION ( 'NONE',  ( 0.0000000000000000000, -1.000000000000000000, 0.0000000000000000000 ) ) ;
#103 = CC_DESIGN_PERSON_AND_ORGANIZATION_ASSIGNMENT ( #33, #180, ( #217 ) ) ;
#104 = PRODUCT ( '60914', '60914', '', ( #196 ) ) ;
#105 = AXIS2_PLACEMENT_3D ( 'NONE', #228, #150, #116 ) ;
#106 = EDGE_CURVE ( 'NONE', #160, #160, #135, .T. ) ;
#107 = CALENDAR_DATE ( 2021, 1, 11 ) ;
#108 = ORIENTED_EDGE ( 'NONE', *, *, #23, .T. ) ;
#109 = APPROVAL_ROLE ( '' ) ;
#110 = AXIS2_PLACEMENT_3D ( 'NONE', #193, #54, #172 ) ;
#111 = CARTESIAN_POINT ( 'NONE',  ( 5.237222008264692144E-15, -1.828864403753137642E-16, 1.499999999999997780 ) ) ;
#112 = PRODUCT_RELATED_PRODUCT_CATEGORY ( 'detail', '', ( #104 ) ) ;
#113 = DATE_TIME_ROLE ( 'classification_date' ) ;
#114 = DIRECTION ( 'NONE',  ( -4.319447003640437456E-31, -1.000000000000000000, -1.219242935835426903E-16 ) ) ;
#115 = EDGE_LOOP ( 'NONE', ( #108 ) ) ;
#116 = DIRECTION ( 'NONE',  ( 4.275831445896958607E-31, 1.000000000000000000, 1.224646799147352961E-16 ) ) ;
#117 = CIRCLE ( 'NONE', #110, 0.2500000000000003886 ) ;
#118 = APPROVAL ( #182, 'UNSPECIFIED' ) ;
#119 = DIRECTION ( 'NONE',  ( 0.0000000000000000000, 1.000000000000000000, 0.0000000000000000000 ) ) ;
#120 = PLANE ( 'NONE',  #90 ) ;
#121 = CARTESIAN_POINT ( 'NONE',  ( 0.0000000000000000000, 0.0000000000000000000, 0.0000000000000000000 ) ) ;
#122 = LOCAL_TIME ( 13, 23, 44.00000000000000000, #166 ) ;
#123 = CARTESIAN_POINT ( 'NONE',  ( 1.316288464743861212E-13, 1.499999999999992228, 37.69999999999999574 ) ) ;
#124 = EDGE_CURVE ( 'NONE', #143, #143, #171, .T. ) ;
#125 = AXIS2_PLACEMENT_3D ( 'NONE', #4, #169, #78 ) ;
#126 = APPROVAL_ROLE ( '' ) ;
#127 = APPROVAL_PERSON_ORGANIZATION ( #221, #11, #202 ) ;
#128 = ADVANCED_BREP_SHAPE_REPRESENTATION ( '60914', ( #62, #65, #13 ), #98 ) ;
#129 = CALENDAR_DATE ( 2021, 1, 11 ) ;
#130 = EDGE_LOOP ( 'NONE', ( #134 ) ) ;
#131 = CC_DESIGN_DATE_AND_TIME_ASSIGNMENT ( #186, #113, ( #192 ) ) ;
#132 = DIRECTION ( 'NONE',  ( -3.491481338843133355E-15, 1.219242935835426903E-16, -1.000000000000000000 ) ) ;
#133 = CIRCLE ( 'NONE', #233, 1.499999999999994671 ) ;
#134 = ORIENTED_EDGE ( 'NONE', *, *, #140, .F. ) ;
#135 = CIRCLE ( 'NONE', #225, 1.499999999999996669 ) ;
#136 = ORIENTED_EDGE ( 'NONE', *, *, #106, .F. ) ;
#137 = CARTESIAN_POINT ( 'NONE',  ( 1.326762908760390423E-13, -4.653657836759941941E-15, 38.00000000000000000 ) ) ;
#138 =( NAMED_UNIT ( * ) SI_UNIT ( $, .STERADIAN. ) SOLID_ANGLE_UNIT ( ) );
#139 = CARTESIAN_POINT ( 'NONE',  ( 5.237222008264698455E-15, 1.124819836996387322E-32, 1.499999999999999556 ) ) ;
#140 = EDGE_CURVE ( 'NONE', #179, #179, #47, .T. ) ;
#141 = CARTESIAN_POINT ( 'NONE',  ( -8.551680453529350800E-31, 2.999525725151307090E-32, -2.449298628175645296E-16 ) ) ;
#142 = PERSON ( 'UNSPECIFIED', 'UNSPECIFIED', 'UNSPECIFIED', ('UNSPECIFIED'), ('UNSPECIFIED'), ('UNSPECIFIED') ) ;
#143 = VERTEX_POINT ( 'NONE', #46 ) ;
#144 = APPLICATION_PROTOCOL_DEFINITION ( 'international standard', 'config_control_design', 1994, #237 ) ;
#145 = APPROVAL_PERSON_ORGANIZATION ( #205, #44, #109 ) ;
#146 = APPROVAL_STATUS ( 'not_yet_approved' ) ;
#147 = CC_DESIGN_APPROVAL ( #11, ( #217 ) ) ;
#148 = ADVANCED_FACE ( 'NONE', ( #210, #76 ), #73, .T. ) ;
#149 = DIRECTION ( 'NONE',  ( -3.491481338843133355E-15, 1.224646799147353207E-16, -1.000000000000000000 ) ) ;
#150 = DIRECTION ( 'NONE',  ( -3.491481338843133355E-15, 1.224646799147353207E-16, -1.000000000000000000 ) ) ;
#151 = ADVANCED_FACE ( 'NONE', ( #25 ), #95, .F. ) ;
#152 = DIRECTION ( 'NONE',  ( 0.0000000000000000000, 1.000000000000000000, 0.0000000000000000000 ) ) ;
#153 = ORIENTED_EDGE ( 'NONE', *, *, #9, .F. ) ;
#154 = CYLINDRICAL_SURFACE ( 'NONE', #203, 0.2500000000000005551 ) ;
#155 = AXIS2_PLACEMENT_3D ( 'NONE', #158, #236, #214 ) ;
#156 = CARTESIAN_POINT ( 'NONE',  ( 5.237222008264698455E-15, 1.124819836996387322E-32, 1.499999999999999556 ) ) ;
#157 =( LENGTH_UNIT ( ) NAMED_UNIT ( * ) SI_UNIT ( .MILLI., .METRE. ) );
#158 = CARTESIAN_POINT ( 'NONE',  ( 1.326762908760390423E-13, -4.653657836759941941E-15, 38.00000000000000000 ) ) ;
#159 = LOCAL_TIME ( 13, 23, 44.00000000000000000, #32 ) ;
#160 = VERTEX_POINT ( 'NONE', #123 ) ;
#161 = EDGE_LOOP ( 'NONE', ( #72 ) ) ;
#162 = VERTEX_POINT ( 'NONE', #241 ) ;
#163 = APPROVAL_DATE_TIME ( #183, #118 ) ;
#164 = LOCAL_TIME ( 13, 23, 44.00000000000000000, #204 ) ;
#165 = PERSON_AND_ORGANIZATION_ROLE ( 'classification_officer' ) ;
#166 = COORDINATED_UNIVERSAL_TIME_OFFSET ( 1, 0, .AHEAD. ) ;
#167 = AXIS2_PLACEMENT_3D ( 'NONE', #137, #168, #119 ) ;
#168 = DIRECTION ( 'NONE',  ( -3.491481338843133355E-15, 1.224646799147353207E-16, -1.000000000000000000 ) ) ;
#169 = DIRECTION ( 'NONE',  ( 3.491481338843133355E-15, -1.219242935835426903E-16, 1.000000000000000000 ) ) ;
#170 = CARTESIAN_POINT ( 'NONE',  ( 1.316288464743861212E-13, -4.616918432785521081E-15, 37.69999999999999574 ) ) ;
#171 = CIRCLE ( 'NONE', #215, 0.2500000000000003886 ) ;
#172 = DIRECTION ( 'NONE',  ( 0.0000000000000000000, -1.000000000000000000, 0.0000000000000000000 ) ) ;
#173 = DIRECTION ( 'NONE',  ( 3.491481338843133355E-15, -1.219242935835426903E-16, 1.000000000000000000 ) ) ;
#174 = ADVANCED_FACE ( 'NONE', ( #177 ), #84, .T. ) ;
#175 = PLANE ( 'NONE',  #181 ) ;
#176 = CC_DESIGN_PERSON_AND_ORGANIZATION_ASSIGNMENT ( #89, #165, ( #192 ) ) ;
#177 = FACE_OUTER_BOUND ( 'NONE', #161, .T. ) ;
#178 = DIRECTION ( 'NONE',  ( 0.0000000000000000000, 0.0000000000000000000, 1.000000000000000000 ) ) ;
#179 = VERTEX_POINT ( 'NONE', #216 ) ;
#180 = PERSON_AND_ORGANIZATION_ROLE ( 'creator' ) ;
#181 = AXIS2_PLACEMENT_3D ( 'NONE', #139, #238, #197 ) ;
#182 = APPROVAL_STATUS ( 'not_yet_approved' ) ;
#183 = DATE_AND_TIME ( #199, #122 ) ;
#184 = PERSON_AND_ORGANIZATION_ROLE ( 'creator' ) ;
#185 = DATE_AND_TIME ( #129, #14 ) ;
#186 = DATE_AND_TIME ( #17, #5 ) ;
#187 = EDGE_LOOP ( 'NONE', ( #53 ) ) ;
#188 = EDGE_CURVE ( 'NONE', #162, #162, #220, .T. ) ;
#189 = FACE_OUTER_BOUND ( 'NONE', #55, .T. ) ;
#190 = EDGE_LOOP ( 'NONE', ( #51 ) ) ;
#191 = DIRECTION ( 'NONE',  ( 3.491481338843133355E-15, -1.219242935835426903E-16, 1.000000000000000000 ) ) ;
#192 = SECURITY_CLASSIFICATION ( '', '', #66 ) ;
#193 = CARTESIAN_POINT ( 'NONE',  ( 5.237222008264692144E-15, -1.828864403753137642E-16, 1.499999999999997780 ) ) ;
#194 = DIRECTION ( 'NONE',  ( -4.275831445896958607E-31, -1.000000000000000000, -1.224646799147353207E-16 ) ) ;
#195 = DIRECTION ( 'NONE',  ( 1.000000000000000000, 0.0000000000000000000, 0.0000000000000000000 ) ) ;
#196 = MECHANICAL_CONTEXT ( 'NONE', #38, 'mechanical' ) ;
#197 = DIRECTION ( 'NONE',  ( -4.275831445896958607E-31, -1.000000000000000000, -1.224646799147353207E-16 ) ) ;
#198 = ORIENTED_EDGE ( 'NONE', *, *, #9, .T. ) ;
#199 = CALENDAR_DATE ( 2021, 1, 11 ) ;
#200 = ADVANCED_FACE ( 'NONE', ( #61 ), #175, .F. ) ;
#201 = ORIENTED_EDGE ( 'NONE', *, *, #106, .T. ) ;
#202 = APPROVAL_ROLE ( '' ) ;
#203 = AXIS2_PLACEMENT_3D ( 'NONE', #94, #37, #232 ) ;
#204 = COORDINATED_UNIVERSAL_TIME_OFFSET ( 1, 0, .AHEAD. ) ;
#205 = PERSON_AND_ORGANIZATION ( #142, #243 ) ;
#206 = ORIENTED_EDGE ( 'NONE', *, *, #188, .F. ) ;
#207 = DIRECTION ( 'NONE',  ( 0.0000000000000000000, -1.000000000000000000, 0.0000000000000000000 ) ) ;
#208 = FACE_BOUND ( 'NONE', #190, .T. ) ;
#209 = EDGE_LOOP ( 'NONE', ( #201 ) ) ;
#210 = FACE_OUTER_BOUND ( 'NONE', #209, .T. ) ;
#211 = EDGE_LOOP ( 'NONE', ( #36 ) ) ;
#212 = CARTESIAN_POINT ( 'NONE',  ( 2.244452867314345661E-14, -7.837742888224362953E-16, 6.428368504635978198 ) ) ;
#213 = EDGE_LOOP ( 'NONE', ( #198 ) ) ;
#214 = DIRECTION ( 'NONE',  ( 0.0000000000000000000, 1.000000000000000000, 0.0000000000000000000 ) ) ;
#215 = AXIS2_PLACEMENT_3D ( 'NONE', #111, #191, #22 ) ;
#216 = CARTESIAN_POINT ( 'NONE',  ( -2.564559005489696899E-30, -0.2500000000000006661, -7.345188922990025349E-16 ) ) ;
#217 = PRODUCT_DEFINITION ( 'UNKNOWN', '', #74, #85 ) ;
#218 = DIRECTION ( 'NONE',  ( 3.491481338843133355E-15, -1.224646799147353207E-16, 1.000000000000000000 ) ) ;
#219 = VERTEX_POINT ( 'NONE', #30 ) ;
#220 = CIRCLE ( 'NONE', #155, 1.199999999999996403 ) ;
#221 = PERSON_AND_ORGANIZATION ( #142, #243 ) ;
#222 = APPROVAL_DATE_TIME ( #226, #11 ) ;
#223 = PERSON_AND_ORGANIZATION_ROLE ( 'design_owner' ) ;
#224 = APPROVAL_DATE_TIME ( #185, #44 ) ;
#225 = AXIS2_PLACEMENT_3D ( 'NONE', #170, #229, #152 ) ;
#226 = DATE_AND_TIME ( #49, #159 ) ;
#227 = DIRECTION ( 'NONE',  ( 3.491481338843133355E-15, -1.219242935835426903E-16, 1.000000000000000000 ) ) ;
#228 = CARTESIAN_POINT ( 'NONE',  ( 0.0000000000000000000, 0.0000000000000000000, 0.0000000000000000000 ) ) ;
#229 = DIRECTION ( 'NONE',  ( -3.491481338843133355E-15, 1.224646799147353207E-16, -1.000000000000000000 ) ) ;
#230 = ORIENTED_EDGE ( 'NONE', *, *, #87, .F. ) ;
#231 = CARTESIAN_POINT ( 'NONE',  ( 7.044545740489954047E-15, -2.459990988554962112E-16, 2.017638090205027712 ) ) ;
#232 = DIRECTION ( 'NONE',  ( -4.256963957985708889E-31, -1.000000000000000000, -1.219242935835426903E-16 ) ) ;
#233 = AXIS2_PLACEMENT_3D ( 'NONE', #212, #132, #207 ) ;
#234 = CARTESIAN_POINT ( 'NONE',  ( 3.547491442338499072E-14, -1.238801947153173929E-15, 10.16041931220495620 ) ) ;
#235 = ADVANCED_FACE ( 'NONE', ( #28, #10 ), #67, .T. ) ;
#236 = DIRECTION ( 'NONE',  ( -3.491481338843133355E-15, 1.224646799147353207E-16, -1.000000000000000000 ) ) ;
#237 = APPLICATION_CONTEXT ( 'configuration controlled 3d designs of mechanical parts and assemblies' ) ;
#238 = DIRECTION ( 'NONE',  ( 3.491481338843133355E-15, -1.224646799147353207E-16, 1.000000000000000000 ) ) ;
#239 = CC_DESIGN_APPROVAL ( #44, ( #192 ) ) ;
#240 = UNCERTAINTY_MEASURE_WITH_UNIT (LENGTH_MEASURE( 1.000000000000000082E-05 ), #157, 'distance_accuracy_value', 'NONE');
#241 = CARTESIAN_POINT ( 'NONE',  ( 1.326762908760390423E-13, 1.199999999999991962, 38.00000000000000000 ) ) ;
#242 = PERSON_AND_ORGANIZATION_ROLE ( 'design_supplier' ) ;
#243 = ORGANIZATION ( 'UNSPECIFIED', 'UNSPECIFIED', '' ) ;
ENDSEC;
END-ISO-10303-21;
