ISO-10303-21;
HEADER;
FILE_DESCRIPTION (( 'STEP AP203' ),
    '1' );
FILE_NAME ('60784.step',
    '2021-10-08T05:16:04',
    ( '' ),
    ( '' ),
    'SwSTEP 2.0',
    'SolidWorks 2019',
    '' );
FILE_SCHEMA (( 'CONFIG_CONTROL_DESIGN' ));
ENDSEC;

DATA;
#1 = CYLINDRICAL_SURFACE ( 'NONE', #81, 0.9949999999999945555 ) ;
#2 = PRODUCT ( '60784', '60784', '', ( #28 ) ) ;
#3 = CARTESIAN_POINT ( 'NONE',  ( 1.326762908760390423E-13, 5.249159239316433205E-33, 38.00000000000000000 ) ) ;
#4 = LOCAL_TIME ( 7, 16, 4.000000000000000000, #33 ) ;
#5 = PERSON ( 'UNSPECIFIED', 'UNSPECIFIED', 'UNSPECIFIED', ('UNSPECIFIED'), ('UNSPECIFIED'), ('UNSPECIFIED') ) ;
#6 = DIRECTION ( 'NONE',  ( 0.0000000000000000000, 1.000000000000000000, 0.0000000000000000000 ) ) ;
#7 = FACE_OUTER_BOUND ( 'NONE', #108, .T. ) ;
#8 = UNCERTAINTY_MEASURE_WITH_UNIT (LENGTH_MEASURE( 1.000000000000000082E-05 ), #163, 'distance_accuracy_value', 'NONE');
#9 = FACE_OUTER_BOUND ( 'NONE', #174, .T. ) ;
#10 = CLOSED_SHELL ( 'NONE', ( #67, #93, #179 ) ) ;
#11 = APPROVAL_PERSON_ORGANIZATION ( #64, #161, #48 ) ;
#12 = ADVANCED_FACE ( 'NONE', ( #19 ), #180, .F. ) ;
#13 = CARTESIAN_POINT ( 'NONE',  ( 4.189777606611760026E-14, 7.461304918742686587E-33, 12.00000000000000000 ) ) ;
#14 = APPROVAL_DATE_TIME ( #18, #155 ) ;
#15 = APPROVAL_STATUS ( 'not_yet_approved' ) ;
#16 = AXIS2_PLACEMENT_3D ( 'NONE', #78, #42, #109 ) ;
#17 = EDGE_CURVE ( 'NONE', #79, #79, #95, .T. ) ;
#18 = DATE_AND_TIME ( #188, #4 ) ;
#19 = FACE_OUTER_BOUND ( 'NONE', #194, .T. ) ;
#20 = MANIFOLD_SOLID_BREP ( 'Corps-Déplacer/Copier1[2]', #10 ) ;
#21 = ORIENTED_EDGE ( 'NONE', *, *, #184, .T. ) ;
#22 = CLOSED_SHELL ( 'NONE', ( #205, #77, #220, #83, #12 ) ) ;
#23 = FACE_OUTER_BOUND ( 'NONE', #55, .T. ) ;
#24 = DIRECTION ( 'NONE',  ( -3.491481338843133355E-15, 1.224646799147353207E-16, -1.000000000000000000 ) ) ;
#25 = EDGE_LOOP ( 'NONE', ( #21 ) ) ;
#26 = CC_DESIGN_DATE_AND_TIME_ASSIGNMENT ( #167, #119, ( #139 ) ) ;
#27 = AXIS2_PLACEMENT_3D ( 'NONE', #13, #103, #61 ) ;
#28 = MECHANICAL_CONTEXT ( 'NONE', #133, 'mechanical' ) ;
#29 = APPLICATION_PROTOCOL_DEFINITION ( 'international standard', 'config_control_design', 1994, #133 ) ;
#30 = DESIGN_CONTEXT ( 'detailed design', #189, 'design' ) ;
#31 = PERSON_AND_ORGANIZATION_ROLE ( 'design_owner' ) ;
#32 = FACE_OUTER_BOUND ( 'NONE', #25, .T. ) ;
#33 = COORDINATED_UNIVERSAL_TIME_OFFSET ( 1, 0, .AHEAD. ) ;
#34 = EDGE_CURVE ( 'NONE', #165, #165, #177, .T. ) ;
#35 = CIRCLE ( 'NONE', #214, 0.9949999999999935563 ) ;
#36 = PERSON_AND_ORGANIZATION_ROLE ( 'creator' ) ;
#37 = PERSON_AND_ORGANIZATION ( #5, #84 ) ;
#38 = CC_DESIGN_PERSON_AND_ORGANIZATION_ASSIGNMENT ( #138, #218, ( #88 ) ) ;
#39 = APPROVAL_STATUS ( 'not_yet_approved' ) ;
#40 = DIRECTION ( 'NONE',  ( 3.491481338843133355E-15, -1.224646799147353207E-16, 1.000000000000000000 ) ) ;
#41 = ORIENTED_EDGE ( 'NONE', *, *, #184, .F. ) ;
#42 = DIRECTION ( 'NONE',  ( -3.491481338843133355E-15, 1.224646799147353207E-16, -1.000000000000000000 ) ) ;
#43 = AXIS2_PLACEMENT_3D ( 'NONE', #82, #65, #152 ) ;
#44 = CARTESIAN_POINT ( 'NONE',  ( 4.192801318148039424E-14, -1.470636734215549386E-15, 12.00866025403784931 ) ) ;
#45 = DIRECTION ( 'NONE',  ( -3.871215968617584449E-31, -1.000000000000000000, -1.089650424608554191E-16 ) ) ;
#46 = CARTESIAN_POINT ( 'NONE',  ( 1.326762908760390423E-13, -4.653657836759941941E-15, 38.00000000000000000 ) ) ;
#47 = APPROVAL_PERSON_ORGANIZATION ( #37, #155, #69 ) ;
#48 = APPROVAL_ROLE ( '' ) ;
#49 = VERTEX_POINT ( 'NONE', #117 ) ;
#50 = CONICAL_SURFACE ( 'NONE', #129, 0.7000000000000001776, 0.7853981633974456145 ) ;
#51 = LOCAL_TIME ( 7, 16, 4.000000000000000000, #52 ) ;
#52 = COORDINATED_UNIVERSAL_TIME_OFFSET ( 1, 0, .AHEAD. ) ;
#53 = DATE_AND_TIME ( #170, #54 ) ;
#54 = LOCAL_TIME ( 7, 16, 4.000000000000000000, #135 ) ;
#55 = EDGE_LOOP ( 'NONE', ( #158 ) ) ;
#56 = FACE_BOUND ( 'NONE', #113, .T. ) ;
#57 = DIRECTION ( 'NONE',  ( -3.491481338843133355E-15, 1.224646799147353207E-16, -1.000000000000000000 ) ) ;
#58 =( GEOMETRIC_REPRESENTATION_CONTEXT ( 3 ) GLOBAL_UNCERTAINTY_ASSIGNED_CONTEXT ( ( #8 ) ) GLOBAL_UNIT_ASSIGNED_CONTEXT ( ( #163, #62, #213 ) ) REPRESENTATION_CONTEXT ( 'NONE', 'WORKASPACE' ) );
#59 = CARTESIAN_POINT ( 'NONE',  ( 1.326762908760390423E-13, -4.653657836759941941E-15, 38.00000000000000000 ) ) ;
#60 = CC_DESIGN_PERSON_AND_ORGANIZATION_ASSIGNMENT ( #202, #36, ( #139 ) ) ;
#61 = DIRECTION ( 'NONE',  ( -4.275831445896958607E-31, -1.000000000000000000, -1.224646799147353207E-16 ) ) ;
#62 =( NAMED_UNIT ( * ) PLANE_ANGLE_UNIT ( ) SI_UNIT ( $, .RADIAN. ) );
#63 = CARTESIAN_POINT ( 'NONE',  ( 4.192801318148039424E-14, 0.9999999999999954481, 12.00866025403784931 ) ) ;
#64 = PERSON_AND_ORGANIZATION ( #5, #84 ) ;
#65 = DIRECTION ( 'NONE',  ( -3.491481338843133355E-15, 1.224646799147353207E-16, -1.000000000000000000 ) ) ;
#66 = PERSON_AND_ORGANIZATION ( #5, #84 ) ;
#67 = ADVANCED_FACE ( 'NONE', ( #175 ), #198, .T. ) ;
#68 = DATE_AND_TIME ( #136, #111 ) ;
#69 = APPROVAL_ROLE ( '' ) ;
#70 = SECURITY_CLASSIFICATION_LEVEL ( 'unclassified' ) ;
#71 = CIRCLE ( 'NONE', #203, 0.7000000000000001776 ) ;
#72 = PRODUCT_DEFINITION_SHAPE ( 'NONE', 'NONE',  #139 ) ;
#73 = ORIENTED_EDGE ( 'NONE', *, *, #143, .F. ) ;
#74 = CC_DESIGN_APPROVAL ( #156, ( #88 ) ) ;
#75 = ORIENTED_EDGE ( 'NONE', *, *, #34, .T. ) ;
#76 = FACE_BOUND ( 'NONE', #120, .T. ) ;
#77 = ADVANCED_FACE ( 'NONE', ( #76, #90 ), #222, .T. ) ;
#78 = CARTESIAN_POINT ( 'NONE',  ( 4.189777606611760026E-14, -1.469576158976823947E-15, 12.00000000000000000 ) ) ;
#79 = VERTEX_POINT ( 'NONE', #96 ) ;
#80 = CARTESIAN_POINT ( 'NONE',  ( 0.0000000000000000000, 0.0000000000000000000, 0.0000000000000000000 ) ) ;
#81 = AXIS2_PLACEMENT_3D ( 'NONE', #178, #208, #126 ) ;
#82 = CARTESIAN_POINT ( 'NONE',  ( 4.189777606611760026E-14, -1.469576158976823947E-15, 12.00000000000000000 ) ) ;
#83 = ADVANCED_FACE ( 'NONE', ( #209, #56 ), #50, .T. ) ;
#84 = ORGANIZATION ( 'UNSPECIFIED', 'UNSPECIFIED', '' ) ;
#85 = PERSON_AND_ORGANIZATION_ROLE ( 'classification_officer' ) ;
#86 = DATE_AND_TIME ( #190, #107 ) ;
#87 = AXIS2_PLACEMENT_3D ( 'NONE', #114, #183, #151 ) ;
#88 = PRODUCT_DEFINITION_FORMATION_WITH_SPECIFIED_SOURCE ( 'ANY', '', #2, .NOT_KNOWN. ) ;
#89 = SHAPE_DEFINITION_REPRESENTATION ( #72, #99 ) ;
#90 = FACE_OUTER_BOUND ( 'NONE', #159, .T. ) ;
#91 = ORIENTED_EDGE ( 'NONE', *, *, #34, .F. ) ;
#92 = FACE_OUTER_BOUND ( 'NONE', #160, .T. ) ;
#93 = ADVANCED_FACE ( 'NONE', ( #23, #92 ), #1, .T. ) ;
#94 = DIRECTION ( 'NONE',  ( 0.0000000000000000000, 1.000000000000000000, 0.0000000000000000000 ) ) ;
#95 = CIRCLE ( 'NONE', #182, 1.000000000000000222 ) ;
#96 = CARTESIAN_POINT ( 'NONE',  ( 1.316288464743861212E-13, 0.9999999999999956701, 37.69999999999999574 ) ) ;
#97 = EDGE_CURVE ( 'NONE', #153, #153, #35, .T. ) ;
#98 = PERSON_AND_ORGANIZATION ( #5, #84 ) ;
#99 = ADVANCED_BREP_SHAPE_REPRESENTATION ( '60784', ( #168, #20, #87 ), #58 ) ;
#100 = AXIS2_PLACEMENT_3D ( 'NONE', #80, #132, #217 ) ;
#101 = CARTESIAN_POINT ( 'NONE',  ( 4.189777606611760026E-14, 7.461304918742686587E-33, 12.00000000000000000 ) ) ;
#102 = CC_DESIGN_PERSON_AND_ORGANIZATION_ASSIGNMENT ( #98, #31, ( #2 ) ) ;
#103 = DIRECTION ( 'NONE',  ( 3.491481338843133355E-15, -1.224646799147353207E-16, 1.000000000000000000 ) ) ;
#104 = PERSON_AND_ORGANIZATION ( #5, #84 ) ;
#105 = PERSON_AND_ORGANIZATION ( #5, #84 ) ;
#106 = AXIS2_PLACEMENT_3D ( 'NONE', #101, #199, #212 ) ;
#107 = LOCAL_TIME ( 7, 16, 4.000000000000000000, #172 ) ;
#108 = EDGE_LOOP ( 'NONE', ( #140 ) ) ;
#109 = DIRECTION ( 'NONE',  ( 0.0000000000000000000, 1.000000000000000000, 0.0000000000000000000 ) ) ;
#110 = DIRECTION ( 'NONE',  ( -3.491481338843133355E-15, 1.224646799147353207E-16, -1.000000000000000000 ) ) ;
#111 = LOCAL_TIME ( 7, 16, 4.000000000000000000, #186 ) ;
#112 = ORIENTED_EDGE ( 'NONE', *, *, #17, .F. ) ;
#113 = EDGE_LOOP ( 'NONE', ( #207 ) ) ;
#114 = CARTESIAN_POINT ( 'NONE',  ( 0.0000000000000000000, 0.0000000000000000000, 0.0000000000000000000 ) ) ;
#115 = VERTEX_POINT ( 'NONE', #149 ) ;
#116 = CC_DESIGN_PERSON_AND_ORGANIZATION_ASSIGNMENT ( #66, #85, ( #210 ) ) ;
#117 = CARTESIAN_POINT ( 'NONE',  ( 1.326762908760390423E-13, 0.6999999999999955147, 38.00000000000000000 ) ) ;
#118 = CC_DESIGN_APPROVAL ( #155, ( #210 ) ) ;
#119 = DATE_TIME_ROLE ( 'creation_date' ) ;
#120 = EDGE_LOOP ( 'NONE', ( #41 ) ) ;
#121 = CC_DESIGN_APPROVAL ( #161, ( #139 ) ) ;
#122 = CARTESIAN_POINT ( 'NONE',  ( 1.316288464743861212E-13, -4.616918432785521081E-15, 37.69999999999999574 ) ) ;
#123 = DIRECTION ( 'NONE',  ( 3.491481338843133355E-15, -1.224646799147353207E-16, 1.000000000000000000 ) ) ;
#124 = DIRECTION ( 'NONE',  ( -3.491481338843133355E-15, 1.224646799147353207E-16, -1.000000000000000000 ) ) ;
#125 = AXIS2_PLACEMENT_3D ( 'NONE', #44, #24, #94 ) ;
#126 = DIRECTION ( 'NONE',  ( 4.275831445896958607E-31, 1.000000000000000000, 1.224646799147353454E-16 ) ) ;
#127 = CYLINDRICAL_SURFACE ( 'NONE', #100, 0.9999999999999986677 ) ;
#128 = CC_DESIGN_DATE_AND_TIME_ASSIGNMENT ( #86, #134, ( #210 ) ) ;
#129 = AXIS2_PLACEMENT_3D ( 'NONE', #59, #110, #176 ) ;
#130 = FACE_OUTER_BOUND ( 'NONE', #157, .T. ) ;
#131 = APPROVAL_STATUS ( 'not_yet_approved' ) ;
#132 = DIRECTION ( 'NONE',  ( -3.491481338843133355E-15, 1.224646799147353207E-16, -1.000000000000000000 ) ) ;
#133 = APPLICATION_CONTEXT ( 'configuration controlled 3d designs of mechanical parts and assemblies' ) ;
#134 = DATE_TIME_ROLE ( 'classification_date' ) ;
#135 = COORDINATED_UNIVERSAL_TIME_OFFSET ( 1, 0, .AHEAD. ) ;
#136 = CALENDAR_DATE ( 2021, 8, 10 ) ;
#137 = CIRCLE ( 'NONE', #125, 0.9999999999999970024 ) ;
#138 = PERSON_AND_ORGANIZATION ( #5, #84 ) ;
#139 = PRODUCT_DEFINITION ( 'UNKNOWN', '', #88, #30 ) ;
#140 = ORIENTED_EDGE ( 'NONE', *, *, #17, .T. ) ;
#141 = CC_DESIGN_SECURITY_CLASSIFICATION ( #210, ( #88 ) ) ;
#142 = DIRECTION ( 'NONE',  ( 0.0000000000000000000, -1.000000000000000000, 0.0000000000000000000 ) ) ;
#143 = EDGE_CURVE ( 'NONE', #185, #185, #137, .T. ) ;
#144 = CARTESIAN_POINT ( 'NONE',  ( 2.087404170387567359E-15, -7.321628236566733013E-17, 0.5978563159324251641 ) ) ;
#145 = EDGE_LOOP ( 'NONE', ( #112 ) ) ;
#146 = AXIS2_PLACEMENT_3D ( 'NONE', #223, #123, #142 ) ;
#147 = ORIENTED_EDGE ( 'NONE', *, *, #97, .T. ) ;
#148 = CARTESIAN_POINT ( 'NONE',  ( 2.087404170387567754E-15, 0.9949999999999935563, 0.5978563159324252752 ) ) ;
#149 = CARTESIAN_POINT ( 'NONE',  ( 4.189777606611760026E-14, 0.9949999999999941114, 12.00000000000000000 ) ) ;
#150 = APPROVAL_PERSON_ORGANIZATION ( #105, #156, #173 ) ;
#151 = DIRECTION ( 'NONE',  ( 1.000000000000000000, 0.0000000000000000000, 0.0000000000000000000 ) ) ;
#152 = DIRECTION ( 'NONE',  ( 0.0000000000000000000, 1.000000000000000000, 0.0000000000000000000 ) ) ;
#153 = VERTEX_POINT ( 'NONE', #148 ) ;
#154 = CALENDAR_DATE ( 2021, 8, 10 ) ;
#155 = APPROVAL ( #39, 'UNSPECIFIED' ) ;
#156 = APPROVAL ( #15, 'UNSPECIFIED' ) ;
#157 = EDGE_LOOP ( 'NONE', ( #91 ) ) ;
#158 = ORIENTED_EDGE ( 'NONE', *, *, #97, .F. ) ;
#159 = EDGE_LOOP ( 'NONE', ( #206 ) ) ;
#160 = EDGE_LOOP ( 'NONE', ( #75 ) ) ;
#161 = APPROVAL ( #131, 'UNSPECIFIED' ) ;
#162 = DIRECTION ( 'NONE',  ( -3.491481338843133355E-15, 1.224646799147353207E-16, -1.000000000000000000 ) ) ;
#163 =( LENGTH_UNIT ( ) NAMED_UNIT ( * ) SI_UNIT ( .MILLI., .METRE. ) );
#164 = PLANE ( 'NONE',  #106 ) ;
#165 = VERTEX_POINT ( 'NONE', #197 ) ;
#166 = CC_DESIGN_PERSON_AND_ORGANIZATION_ASSIGNMENT ( #104, #171, ( #88 ) ) ;
#167 = DATE_AND_TIME ( #154, #51 ) ;
#168 = MANIFOLD_SOLID_BREP ( 'Corps-Déplacer/Copier1[1]', #22 ) ;
#169 = AXIS2_PLACEMENT_3D ( 'NONE', #3, #162, #211 ) ;
#170 = CALENDAR_DATE ( 2021, 8, 10 ) ;
#171 = PERSON_AND_ORGANIZATION_ROLE ( 'creator' ) ;
#172 = COORDINATED_UNIVERSAL_TIME_OFFSET ( 1, 0, .AHEAD. ) ;
#173 = APPROVAL_ROLE ( '' ) ;
#174 = EDGE_LOOP ( 'NONE', ( #73 ) ) ;
#175 = FACE_OUTER_BOUND ( 'NONE', #221, .T. ) ;
#176 = DIRECTION ( 'NONE',  ( 0.0000000000000000000, 1.000000000000000000, 0.0000000000000000000 ) ) ;
#177 = CIRCLE ( 'NONE', #16, 0.9949999999999956657 ) ;
#178 = CARTESIAN_POINT ( 'NONE',  ( 0.0000000000000000000, 0.0000000000000000000, 0.0000000000000000000 ) ) ;
#179 = ADVANCED_FACE ( 'NONE', ( #130 ), #164, .T. ) ;
#180 = PLANE ( 'NONE',  #169 ) ;
#181 = PLANE ( 'NONE',  #27 ) ;
#182 = AXIS2_PLACEMENT_3D ( 'NONE', #122, #124, #193 ) ;
#183 = DIRECTION ( 'NONE',  ( 0.0000000000000000000, 0.0000000000000000000, 1.000000000000000000 ) ) ;
#184 = EDGE_CURVE ( 'NONE', #115, #115, #219, .T. ) ;
#185 = VERTEX_POINT ( 'NONE', #63 ) ;
#186 = COORDINATED_UNIVERSAL_TIME_OFFSET ( 1, 0, .AHEAD. ) ;
#187 = APPROVAL_DATE_TIME ( #53, #156 ) ;
#188 = CALENDAR_DATE ( 2021, 8, 10 ) ;
#189 = APPLICATION_CONTEXT ( 'configuration controlled 3d designs of mechanical parts and assemblies' ) ;
#190 = CALENDAR_DATE ( 2021, 8, 10 ) ;
#191 = AXIS2_PLACEMENT_3D ( 'NONE', #192, #40, #45 ) ;
#192 = CARTESIAN_POINT ( 'NONE',  ( 2.087404170387567359E-15, -7.321628236566733013E-17, 0.5978563159324251641 ) ) ;
#193 = DIRECTION ( 'NONE',  ( 0.0000000000000000000, 1.000000000000000000, 0.0000000000000000000 ) ) ;
#194 = EDGE_LOOP ( 'NONE', ( #196 ) ) ;
#195 = DIRECTION ( 'NONE',  ( 3.871215968617584449E-31, 1.000000000000000000, 1.089650424608554191E-16 ) ) ;
#196 = ORIENTED_EDGE ( 'NONE', *, *, #216, .F. ) ;
#197 = CARTESIAN_POINT ( 'NONE',  ( 4.189777606611760026E-14, 0.9949999999999941114, 12.00000000000000000 ) ) ;
#198 = CONICAL_SURFACE ( 'NONE', #191, 0.9949999999999935563, 1.029744258676649649 ) ;
#199 = DIRECTION ( 'NONE',  ( 3.491481338843133355E-15, -1.224646799147353207E-16, 1.000000000000000000 ) ) ;
#200 = DIRECTION ( 'NONE',  ( -3.491481338843133355E-15, 1.224646799147353207E-16, -1.000000000000000000 ) ) ;
#201 = PRODUCT_RELATED_PRODUCT_CATEGORY ( 'detail', '', ( #2 ) ) ;
#202 = PERSON_AND_ORGANIZATION ( #5, #84 ) ;
#203 = AXIS2_PLACEMENT_3D ( 'NONE', #46, #200, #6 ) ;
#204 = APPROVAL_DATE_TIME ( #68, #161 ) ;
#205 = ADVANCED_FACE ( 'NONE', ( #32 ), #181, .F. ) ;
#206 = ORIENTED_EDGE ( 'NONE', *, *, #143, .T. ) ;
#207 = ORIENTED_EDGE ( 'NONE', *, *, #216, .T. ) ;
#208 = DIRECTION ( 'NONE',  ( -3.491481338843133355E-15, 1.224646799147353207E-16, -1.000000000000000000 ) ) ;
#209 = FACE_OUTER_BOUND ( 'NONE', #145, .T. ) ;
#210 = SECURITY_CLASSIFICATION ( '', '', #70 ) ;
#211 = DIRECTION ( 'NONE',  ( 4.275831445896958607E-31, 1.000000000000000000, 1.224646799147353207E-16 ) ) ;
#212 = DIRECTION ( 'NONE',  ( -4.275831445896958607E-31, -1.000000000000000000, -1.224646799147353207E-16 ) ) ;
#213 =( NAMED_UNIT ( * ) SI_UNIT ( $, .STERADIAN. ) SOLID_ANGLE_UNIT ( ) );
#214 = AXIS2_PLACEMENT_3D ( 'NONE', #144, #57, #195 ) ;
#215 = APPLICATION_PROTOCOL_DEFINITION ( 'international standard', 'config_control_design', 1994, #189 ) ;
#216 = EDGE_CURVE ( 'NONE', #49, #49, #71, .T. ) ;
#217 = DIRECTION ( 'NONE',  ( 4.275831445896959482E-31, 1.000000000000000000, 1.224646799147353454E-16 ) ) ;
#218 = PERSON_AND_ORGANIZATION_ROLE ( 'design_supplier' ) ;
#219 = CIRCLE ( 'NONE', #43, 0.9949999999999956657 ) ;
#220 = ADVANCED_FACE ( 'NONE', ( #9, #7 ), #127, .T. ) ;
#221 = EDGE_LOOP ( 'NONE', ( #147 ) ) ;
#222 = CONICAL_SURFACE ( 'NONE', #146, 0.9999999999999970024, 0.5235987755981990066 ) ;
#223 = CARTESIAN_POINT ( 'NONE',  ( 4.192801318148039424E-14, -1.470636734215549386E-15, 12.00866025403784931 ) ) ;
ENDSEC;
END-ISO-10303-21;
