ISO-10303-21;
HEADER;
FILE_DESCRIPTION (( 'STEP AP203' ),
    '1' );
FILE_NAME ('60780.step',
    '2021-10-07T13:48:24',
    ( '' ),
    ( '' ),
    'SwSTEP 2.0',
    'SolidWorks 2019',
    '' );
FILE_SCHEMA (( 'CONFIG_CONTROL_DESIGN' ));
ENDSEC;

DATA;
#1 = ADVANCED_FACE ( 'NONE', ( #79 ), #55, .T. ) ;
#2 = CONICAL_SURFACE ( 'NONE', #89, 0.9999999999999970024, 0.5235987755982879355 ) ;
#3 = CC_DESIGN_PERSON_AND_ORGANIZATION_ASSIGNMENT ( #190, #64, ( #58 ) ) ;
#4 = APPROVAL_DATE_TIME ( #129, #125 ) ;
#5 = EDGE_LOOP ( 'NONE', ( #113 ) ) ;
#6 = DIRECTION ( 'NONE',  ( 0.0000000000000000000, 0.0000000000000000000, 1.000000000000000000 ) ) ;
#7 = PERSON_AND_ORGANIZATION_ROLE ( 'creator' ) ;
#8 = CIRCLE ( 'NONE', #23, 1.000000000000000222 ) ;
#9 = EDGE_LOOP ( 'NONE', ( #208 ) ) ;
#10 = DIRECTION ( 'NONE',  ( 0.0000000000000000000, 1.000000000000000000, 0.0000000000000000000 ) ) ;
#11 = CARTESIAN_POINT ( 'NONE',  ( 4.207919875829426314E-14, -1.475939610409173818E-15, 12.05196152422707101 ) ) ;
#12 = CIRCLE ( 'NONE', #120, 0.9699999999999949774 ) ;
#13 = DIRECTION ( 'NONE',  ( 0.0000000000000000000, -1.000000000000000000, 0.0000000000000000000 ) ) ;
#14 = DIRECTION ( 'NONE',  ( 4.275831445896958607E-31, 1.000000000000000000, 1.224646799147353207E-16 ) ) ;
#15 = PRODUCT_RELATED_PRODUCT_CATEGORY ( 'detail', '', ( #185 ) ) ;
#16 = ORIENTED_EDGE ( 'NONE', *, *, #19, .F. ) ;
#17 = LOCAL_TIME ( 15, 48, 24.00000000000000000, #140 ) ;
#18 = VERTEX_POINT ( 'NONE', #100 ) ;
#19 = EDGE_CURVE ( 'NONE', #18, #18, #188, .T. ) ;
#20 = APPROVAL_STATUS ( 'not_yet_approved' ) ;
#21 = ORIENTED_EDGE ( 'NONE', *, *, #210, .F. ) ;
#22 = ADVANCED_FACE ( 'NONE', ( #165, #134 ), #118, .T. ) ;
#23 = AXIS2_PLACEMENT_3D ( 'NONE', #183, #25, #182 ) ;
#24 = CARTESIAN_POINT ( 'NONE',  ( 1.326762908760390423E-13, 0.7999999999999954925, 38.00000000000000000 ) ) ;
#25 = DIRECTION ( 'NONE',  ( -3.491481338843133355E-15, 1.224646799147353207E-16, -1.000000000000000000 ) ) ;
#26 = PERSON_AND_ORGANIZATION_ROLE ( 'creator' ) ;
#27 = CARTESIAN_POINT ( 'NONE',  ( 4.189777606611760026E-14, -1.469576158976823947E-15, 12.00000000000000000 ) ) ;
#28 = FACE_OUTER_BOUND ( 'NONE', #115, .T. ) ;
#29 = APPROVAL_ROLE ( '' ) ;
#30 = MANIFOLD_SOLID_BREP ( 'Corps-Déplacer/Copier1[1]', #205 ) ;
#31 = CC_DESIGN_APPROVAL ( #87, ( #199 ) ) ;
#32 = CC_DESIGN_PERSON_AND_ORGANIZATION_ASSIGNMENT ( #138, #207, ( #199 ) ) ;
#33 = PLANE ( 'NONE',  #142 ) ;
#34 = DIRECTION ( 'NONE',  ( -3.491481338843133355E-15, 1.224646799147353207E-16, -1.000000000000000000 ) ) ;
#35 = SHAPE_DEFINITION_REPRESENTATION ( #179, #78 ) ;
#36 = APPROVAL_DATE_TIME ( #189, #87 ) ;
#37 = EDGE_LOOP ( 'NONE', ( #16 ) ) ;
#38 = ADVANCED_FACE ( 'NONE', ( #222, #50 ), #2, .T. ) ;
#39 = APPLICATION_PROTOCOL_DEFINITION ( 'international standard', 'config_control_design', 1994, #146 ) ;
#40 = DIRECTION ( 'NONE',  ( 3.491481338843133355E-15, -1.224646799147353207E-16, 1.000000000000000000 ) ) ;
#41 =( NAMED_UNIT ( * ) PLANE_ANGLE_UNIT ( ) SI_UNIT ( $, .RADIAN. ) );
#42 = DATE_TIME_ROLE ( 'creation_date' ) ;
#43 = EDGE_LOOP ( 'NONE', ( #21 ) ) ;
#44 = CALENDAR_DATE ( 2021, 7, 10 ) ;
#45 =( NAMED_UNIT ( * ) SI_UNIT ( $, .STERADIAN. ) SOLID_ANGLE_UNIT ( ) );
#46 = ORIENTED_EDGE ( 'NONE', *, *, #210, .T. ) ;
#47 = LOCAL_TIME ( 15, 48, 24.00000000000000000, #173 ) ;
#48 = PERSON_AND_ORGANIZATION ( #194, #123 ) ;
#49 = DIRECTION ( 'NONE',  ( 3.491481338843133355E-15, -1.224646799147353207E-16, 1.000000000000000000 ) ) ;
#50 = FACE_OUTER_BOUND ( 'NONE', #84, .T. ) ;
#51 = DIRECTION ( 'NONE',  ( -3.491481338843133355E-15, 1.224646799147353207E-16, -1.000000000000000000 ) ) ;
#52 = AXIS2_PLACEMENT_3D ( 'NONE', #70, #204, #104 ) ;
#53 = DIRECTION ( 'NONE',  ( -4.275831445896958607E-31, -1.000000000000000000, -1.224646799147353207E-16 ) ) ;
#54 = CC_DESIGN_PERSON_AND_ORGANIZATION_ASSIGNMENT ( #114, #26, ( #58 ) ) ;
#55 = CONICAL_SURFACE ( 'NONE', #69, 0.9699999999999935341, 1.029744258676649649 ) ;
#56 = CALENDAR_DATE ( 2021, 7, 10 ) ;
#57 = PRODUCT_DEFINITION ( 'UNKNOWN', '', #58, #136 ) ;
#58 = PRODUCT_DEFINITION_FORMATION_WITH_SPECIFIED_SOURCE ( 'ANY', '', #185, .NOT_KNOWN. ) ;
#59 = ORIENTED_EDGE ( 'NONE', *, *, #75, .F. ) ;
#60 = COORDINATED_UNIVERSAL_TIME_OFFSET ( 1, 0, .AHEAD. ) ;
#61 = DATE_AND_TIME ( #124, #187 ) ;
#62 = EDGE_LOOP ( 'NONE', ( #46 ) ) ;
#63 = APPROVAL_ROLE ( '' ) ;
#64 = PERSON_AND_ORGANIZATION_ROLE ( 'design_supplier' ) ;
#65 = EDGE_LOOP ( 'NONE', ( #196 ) ) ;
#66 = APPROVAL_ROLE ( '' ) ;
#67 = APPLICATION_PROTOCOL_DEFINITION ( 'international standard', 'config_control_design', 1994, #221 ) ;
#68 = CARTESIAN_POINT ( 'NONE',  ( 2.034956829423055155E-15, -7.137667728110280342E-17, 0.5828348004567359686 ) ) ;
#69 = AXIS2_PLACEMENT_3D ( 'NONE', #141, #40, #193 ) ;
#70 = CARTESIAN_POINT ( 'NONE',  ( 1.326762908760390423E-13, -4.653657836759941941E-15, 38.00000000000000000 ) ) ;
#71 = SECURITY_CLASSIFICATION_LEVEL ( 'unclassified' ) ;
#72 = DIRECTION ( 'NONE',  ( -3.491481338843133355E-15, 1.224646799147353207E-16, -1.000000000000000000 ) ) ;
#73 = FACE_OUTER_BOUND ( 'NONE', #37, .T. ) ;
#74 = AXIS2_PLACEMENT_3D ( 'NONE', #217, #34, #178 ) ;
#75 = EDGE_CURVE ( 'NONE', #192, #192, #8, .T. ) ;
#76 = AXIS2_PLACEMENT_3D ( 'NONE', #167, #148, #144 ) ;
#77 =( GEOMETRIC_REPRESENTATION_CONTEXT ( 3 ) GLOBAL_UNCERTAINTY_ASSIGNED_CONTEXT ( ( #175 ) ) GLOBAL_UNIT_ASSIGNED_CONTEXT ( ( #126, #41, #45 ) ) REPRESENTATION_CONTEXT ( 'NONE', 'WORKASPACE' ) );
#78 = ADVANCED_BREP_SHAPE_REPRESENTATION ( '60780', ( #30, #110, #160 ), #77 ) ;
#79 = FACE_OUTER_BOUND ( 'NONE', #62, .T. ) ;
#80 = PERSON_AND_ORGANIZATION_ROLE ( 'design_owner' ) ;
#81 = CARTESIAN_POINT ( 'NONE',  ( 4.207919875829426314E-14, 0.9999999999999954481, 12.05196152422707101 ) ) ;
#82 = CIRCLE ( 'NONE', #184, 0.9999999999999970024 ) ;
#83 = CC_DESIGN_PERSON_AND_ORGANIZATION_ASSIGNMENT ( #112, #80, ( #185 ) ) ;
#84 = EDGE_LOOP ( 'NONE', ( #101 ) ) ;
#85 = VERTEX_POINT ( 'NONE', #214 ) ;
#86 = FACE_OUTER_BOUND ( 'NONE', #5, .T. ) ;
#87 = APPROVAL ( #164, 'UNSPECIFIED' ) ;
#88 = FACE_BOUND ( 'NONE', #127, .T. ) ;
#89 = AXIS2_PLACEMENT_3D ( 'NONE', #11, #162, #13 ) ;
#90 = CARTESIAN_POINT ( 'NONE',  ( 4.189777606611760026E-14, 7.273834945909947544E-33, 12.00000000000000000 ) ) ;
#91 = FACE_OUTER_BOUND ( 'NONE', #98, .T. ) ;
#92 = CC_DESIGN_SECURITY_CLASSIFICATION ( #199, ( #58 ) ) ;
#93 = APPROVAL ( #180, 'UNSPECIFIED' ) ;
#94 = CIRCLE ( 'NONE', #153, 0.9699999999999935341 ) ;
#95 = ADVANCED_FACE ( 'NONE', ( #28 ), #33, .F. ) ;
#96 = AXIS2_PLACEMENT_3D ( 'NONE', #121, #51, #219 ) ;
#97 = EDGE_LOOP ( 'NONE', ( #161 ) ) ;
#98 = EDGE_LOOP ( 'NONE', ( #59 ) ) ;
#99 = ADVANCED_FACE ( 'NONE', ( #73 ), #132, .T. ) ;
#100 = CARTESIAN_POINT ( 'NONE',  ( 4.189777606611760026E-14, 0.9699999999999934230, 12.00000000000000000 ) ) ;
#101 = ORIENTED_EDGE ( 'NONE', *, *, #108, .T. ) ;
#102 = VERTEX_POINT ( 'NONE', #216 ) ;
#103 = DIRECTION ( 'NONE',  ( -3.491481338843133355E-15, 1.224646799147353207E-16, -1.000000000000000000 ) ) ;
#104 = DIRECTION ( 'NONE',  ( 0.0000000000000000000, 1.000000000000000000, 0.0000000000000000000 ) ) ;
#105 = DIRECTION ( 'NONE',  ( -4.275831445896958607E-31, -1.000000000000000000, -1.224646799147353207E-16 ) ) ;
#106 = APPROVAL_PERSON_ORGANIZATION ( #48, #93, #63 ) ;
#107 = CARTESIAN_POINT ( 'NONE',  ( 1.326762908760390423E-13, 5.999039130647361324E-33, 38.00000000000000000 ) ) ;
#108 = EDGE_CURVE ( 'NONE', #156, #156, #82, .T. ) ;
#109 = AXIS2_PLACEMENT_3D ( 'NONE', #107, #143, #14 ) ;
#110 = MANIFOLD_SOLID_BREP ( 'Corps-Déplacer/Copier1[2]', #145 ) ;
#111 = LOCAL_TIME ( 15, 48, 24.00000000000000000, #172 ) ;
#112 = PERSON_AND_ORGANIZATION ( #194, #123 ) ;
#113 = ORIENTED_EDGE ( 'NONE', *, *, #154, .F. ) ;
#114 = PERSON_AND_ORGANIZATION ( #194, #123 ) ;
#115 = EDGE_LOOP ( 'NONE', ( #213 ) ) ;
#116 = DATE_AND_TIME ( #131, #17 ) ;
#117 = DIRECTION ( 'NONE',  ( -3.491481338843133355E-15, 1.224646799147353207E-16, -1.000000000000000000 ) ) ;
#118 = CYLINDRICAL_SURFACE ( 'NONE', #76, 0.9999999999999986677 ) ;
#119 = FACE_OUTER_BOUND ( 'NONE', #97, .T. ) ;
#120 = AXIS2_PLACEMENT_3D ( 'NONE', #27, #202, #135 ) ;
#121 = CARTESIAN_POINT ( 'NONE',  ( 1.326762908760390423E-13, -4.653657836759941941E-15, 38.00000000000000000 ) ) ;
#122 = COORDINATED_UNIVERSAL_TIME_OFFSET ( 1, 0, .AHEAD. ) ;
#123 = ORGANIZATION ( 'UNSPECIFIED', 'UNSPECIFIED', '' ) ;
#124 = CALENDAR_DATE ( 2021, 7, 10 ) ;
#125 = APPROVAL ( #20, 'UNSPECIFIED' ) ;
#126 =( LENGTH_UNIT ( ) NAMED_UNIT ( * ) SI_UNIT ( .MILLI., .METRE. ) );
#127 = EDGE_LOOP ( 'NONE', ( #158 ) ) ;
#128 = CARTESIAN_POINT ( 'NONE',  ( 1.319779946082704535E-13, 0.9999999999999956701, 37.79999999999999716 ) ) ;
#129 = DATE_AND_TIME ( #209, #47 ) ;
#130 = ADVANCED_FACE ( 'NONE', ( #86 ), #181, .F. ) ;
#131 = CALENDAR_DATE ( 2021, 7, 10 ) ;
#132 = PLANE ( 'NONE',  #168 ) ;
#133 = FACE_OUTER_BOUND ( 'NONE', #43, .T. ) ;
#134 = FACE_OUTER_BOUND ( 'NONE', #65, .T. ) ;
#135 = DIRECTION ( 'NONE',  ( 0.0000000000000000000, 1.000000000000000000, 0.0000000000000000000 ) ) ;
#136 = DESIGN_CONTEXT ( 'detailed design', #221, 'design' ) ;
#137 = CC_DESIGN_DATE_AND_TIME_ASSIGNMENT ( #116, #42, ( #57 ) ) ;
#138 = PERSON_AND_ORGANIZATION ( #194, #123 ) ;
#139 = DATE_AND_TIME ( #44, #111 ) ;
#140 = COORDINATED_UNIVERSAL_TIME_OFFSET ( 1, 0, .AHEAD. ) ;
#141 = CARTESIAN_POINT ( 'NONE',  ( 2.034956829423055155E-15, -7.137667728110280342E-17, 0.5828348004567359686 ) ) ;
#142 = AXIS2_PLACEMENT_3D ( 'NONE', #201, #49, #105 ) ;
#143 = DIRECTION ( 'NONE',  ( -3.491481338843133355E-15, 1.224646799147353207E-16, -1.000000000000000000 ) ) ;
#144 = DIRECTION ( 'NONE',  ( 4.275831445896959482E-31, 1.000000000000000000, 1.224646799147353454E-16 ) ) ;
#145 = CLOSED_SHELL ( 'NONE', ( #1, #170, #99 ) ) ;
#146 = APPLICATION_CONTEXT ( 'configuration controlled 3d designs of mechanical parts and assemblies' ) ;
#147 = DIRECTION ( 'NONE',  ( 3.491481338843133355E-15, -1.224646799147353207E-16, 1.000000000000000000 ) ) ;
#148 = DIRECTION ( 'NONE',  ( -3.491481338843133355E-15, 1.224646799147353207E-16, -1.000000000000000000 ) ) ;
#149 = CC_DESIGN_APPROVAL ( #125, ( #57 ) ) ;
#150 = EDGE_CURVE ( 'NONE', #102, #102, #12, .T. ) ;
#151 = ADVANCED_FACE ( 'NONE', ( #91, #88 ), #223, .T. ) ;
#152 = CARTESIAN_POINT ( 'NONE',  ( 4.189777606611760026E-14, -1.469576158976823947E-15, 12.00000000000000000 ) ) ;
#153 = AXIS2_PLACEMENT_3D ( 'NONE', #68, #103, #200 ) ;
#154 = EDGE_CURVE ( 'NONE', #212, #212, #169, .T. ) ;
#155 = EDGE_LOOP ( 'NONE', ( #171 ) ) ;
#156 = VERTEX_POINT ( 'NONE', #81 ) ;
#157 = APPROVAL_DATE_TIME ( #61, #93 ) ;
#158 = ORIENTED_EDGE ( 'NONE', *, *, #154, .T. ) ;
#159 = CARTESIAN_POINT ( 'NONE',  ( 0.0000000000000000000, 0.0000000000000000000, 0.0000000000000000000 ) ) ;
#160 = AXIS2_PLACEMENT_3D ( 'NONE', #159, #6, #176 ) ;
#161 = ORIENTED_EDGE ( 'NONE', *, *, #19, .T. ) ;
#162 = DIRECTION ( 'NONE',  ( 3.491481338843133355E-15, -1.224646799147353207E-16, 1.000000000000000000 ) ) ;
#163 = DIRECTION ( 'NONE',  ( 0.0000000000000000000, 1.000000000000000000, 0.0000000000000000000 ) ) ;
#164 = APPROVAL_STATUS ( 'not_yet_approved' ) ;
#165 = FACE_OUTER_BOUND ( 'NONE', #9, .T. ) ;
#166 = APPROVAL_PERSON_ORGANIZATION ( #174, #125, #66 ) ;
#167 = CARTESIAN_POINT ( 'NONE',  ( 0.0000000000000000000, 0.0000000000000000000, 0.0000000000000000000 ) ) ;
#168 = AXIS2_PLACEMENT_3D ( 'NONE', #90, #147, #53 ) ;
#169 = CIRCLE ( 'NONE', #96, 0.8000000000000001554 ) ;
#170 = ADVANCED_FACE ( 'NONE', ( #133, #119 ), #186, .T. ) ;
#171 = ORIENTED_EDGE ( 'NONE', *, *, #150, .F. ) ;
#172 = COORDINATED_UNIVERSAL_TIME_OFFSET ( 1, 0, .AHEAD. ) ;
#173 = COORDINATED_UNIVERSAL_TIME_OFFSET ( 1, 0, .AHEAD. ) ;
#174 = PERSON_AND_ORGANIZATION ( #194, #123 ) ;
#175 = UNCERTAINTY_MEASURE_WITH_UNIT (LENGTH_MEASURE( 1.000000000000000082E-05 ), #126, 'distance_accuracy_value', 'NONE');
#176 = DIRECTION ( 'NONE',  ( 1.000000000000000000, 0.0000000000000000000, 0.0000000000000000000 ) ) ;
#177 = APPROVAL_PERSON_ORGANIZATION ( #197, #87, #29 ) ;
#178 = DIRECTION ( 'NONE',  ( 4.275831445896957731E-31, 1.000000000000000000, 1.224646799147353207E-16 ) ) ;
#179 = PRODUCT_DEFINITION_SHAPE ( 'NONE', 'NONE',  #57 ) ;
#180 = APPROVAL_STATUS ( 'not_yet_approved' ) ;
#181 = PLANE ( 'NONE',  #109 ) ;
#182 = DIRECTION ( 'NONE',  ( 0.0000000000000000000, 1.000000000000000000, 0.0000000000000000000 ) ) ;
#183 = CARTESIAN_POINT ( 'NONE',  ( 1.319779946082704535E-13, -4.629164900776995227E-15, 37.79999999999999716 ) ) ;
#184 = AXIS2_PLACEMENT_3D ( 'NONE', #220, #72, #10 ) ;
#185 = PRODUCT ( '60780', '60780', '', ( #198 ) ) ;
#186 = CYLINDRICAL_SURFACE ( 'NONE', #74, 0.9699999999999943112 ) ;
#187 = LOCAL_TIME ( 15, 48, 24.00000000000000000, #60 ) ;
#188 = CIRCLE ( 'NONE', #211, 0.9699999999999949774 ) ;
#189 = DATE_AND_TIME ( #56, #191 ) ;
#190 = PERSON_AND_ORGANIZATION ( #194, #123 ) ;
#191 = LOCAL_TIME ( 15, 48, 24.00000000000000000, #122 ) ;
#192 = VERTEX_POINT ( 'NONE', #128 ) ;
#193 = DIRECTION ( 'NONE',  ( -3.970989576056183016E-31, -1.000000000000000000, -1.117734198438671857E-16 ) ) ;
#194 = PERSON ( 'UNSPECIFIED', 'UNSPECIFIED', 'UNSPECIFIED', ('UNSPECIFIED'), ('UNSPECIFIED'), ('UNSPECIFIED') ) ;
#195 = PERSON_AND_ORGANIZATION ( #194, #123 ) ;
#196 = ORIENTED_EDGE ( 'NONE', *, *, #75, .T. ) ;
#197 = PERSON_AND_ORGANIZATION ( #194, #123 ) ;
#198 = MECHANICAL_CONTEXT ( 'NONE', #146, 'mechanical' ) ;
#199 = SECURITY_CLASSIFICATION ( '', '', #71 ) ;
#200 = DIRECTION ( 'NONE',  ( 3.970989576056183016E-31, 1.000000000000000000, 1.117734198438671857E-16 ) ) ;
#201 = CARTESIAN_POINT ( 'NONE',  ( 4.189777606611760026E-14, 7.273834945909947544E-33, 12.00000000000000000 ) ) ;
#202 = DIRECTION ( 'NONE',  ( -3.491481338843133355E-15, 1.224646799147353207E-16, -1.000000000000000000 ) ) ;
#203 = CC_DESIGN_PERSON_AND_ORGANIZATION_ASSIGNMENT ( #195, #7, ( #57 ) ) ;
#204 = DIRECTION ( 'NONE',  ( -3.491481338843133355E-15, 1.224646799147353207E-16, -1.000000000000000000 ) ) ;
#205 = CLOSED_SHELL ( 'NONE', ( #95, #38, #22, #151, #130 ) ) ;
#206 = CC_DESIGN_DATE_AND_TIME_ASSIGNMENT ( #139, #215, ( #199 ) ) ;
#207 = PERSON_AND_ORGANIZATION_ROLE ( 'classification_officer' ) ;
#208 = ORIENTED_EDGE ( 'NONE', *, *, #108, .F. ) ;
#209 = CALENDAR_DATE ( 2021, 7, 10 ) ;
#210 = EDGE_CURVE ( 'NONE', #85, #85, #94, .T. ) ;
#211 = AXIS2_PLACEMENT_3D ( 'NONE', #152, #117, #163 ) ;
#212 = VERTEX_POINT ( 'NONE', #24 ) ;
#213 = ORIENTED_EDGE ( 'NONE', *, *, #150, .T. ) ;
#214 = CARTESIAN_POINT ( 'NONE',  ( 2.034956829423055549E-15, 0.9699999999999934230, 0.5828348004567360796 ) ) ;
#215 = DATE_TIME_ROLE ( 'classification_date' ) ;
#216 = CARTESIAN_POINT ( 'NONE',  ( 4.189777606611760026E-14, 0.9699999999999934230, 12.00000000000000000 ) ) ;
#217 = CARTESIAN_POINT ( 'NONE',  ( 0.0000000000000000000, 0.0000000000000000000, 0.0000000000000000000 ) ) ;
#218 = CC_DESIGN_APPROVAL ( #93, ( #58 ) ) ;
#219 = DIRECTION ( 'NONE',  ( 0.0000000000000000000, 1.000000000000000000, 0.0000000000000000000 ) ) ;
#220 = CARTESIAN_POINT ( 'NONE',  ( 4.207919875829426314E-14, -1.475939610409173818E-15, 12.05196152422707101 ) ) ;
#221 = APPLICATION_CONTEXT ( 'configuration controlled 3d designs of mechanical parts and assemblies' ) ;
#222 = FACE_BOUND ( 'NONE', #155, .T. ) ;
#223 = CONICAL_SURFACE ( 'NONE', #52, 0.8000000000000001554, 0.7853981633974516097 ) ;
ENDSEC;
END-ISO-10303-21;
