ISO-10303-21;
HEADER;
FILE_DESCRIPTION (( 'STEP AP203' ),
    '1' );
FILE_NAME ('60627.step',
    '2021-11-01T09:46:00',
    ( '' ),
    ( '' ),
    'SwSTEP 2.0',
    'SolidWorks 2019',
    '' );
FILE_SCHEMA (( 'CONFIG_CONTROL_DESIGN' ));
ENDSEC;

DATA;
#1 = CARTESIAN_POINT ( 'NONE',  ( 1.326762908760390423E-13, 8.998558695971017012E-33, 38.00000000000000000 ) ) ;
#2 = EDGE_LOOP ( 'NONE', ( #15 ) ) ;
#3 = CARTESIAN_POINT ( 'NONE',  ( 2.444036937190193033E-14, -8.592624733039555931E-16, 6.999999999999999112 ) ) ;
#4 = AXIS2_PLACEMENT_3D ( 'NONE', #128, #192, #146 ) ;
#5 = DIRECTION ( 'NONE',  ( 0.0000000000000000000, 1.000000000000000000, 0.0000000000000000000 ) ) ;
#6 = FACE_OUTER_BOUND ( 'NONE', #69, .T. ) ;
#7 = CARTESIAN_POINT ( 'NONE',  ( -1.924129419174264339E-30, 6.748937501461144163E-32, -5.510925685805913103E-16 ) ) ;
#8 = APPROVAL_PERSON_ORGANIZATION ( #46, #110, #27 ) ;
#9 = PRODUCT ( '60627', '60627', '', ( #164 ) ) ;
#10 = APPROVAL_DATE_TIME ( #202, #161 ) ;
#11 = CALENDAR_DATE ( 2021, 1, 11 ) ;
#12 = LOCAL_TIME ( 10, 46, 0.0000000000000000000, #102 ) ;
#13 = CC_DESIGN_APPROVAL ( #103, ( #149 ) ) ;
#14 = COORDINATED_UNIVERSAL_TIME_OFFSET ( 1, 0, .AHEAD. ) ;
#15 = ORIENTED_EDGE ( 'NONE', *, *, #71, .F. ) ;
#16 = PERSON_AND_ORGANIZATION_ROLE ( 'classification_officer' ) ;
#17 = EDGE_CURVE ( 'NONE', #129, #129, #206, .T. ) ;
#18 = DIRECTION ( 'NONE',  ( -3.491481338843133355E-15, 1.227517819005651059E-16, -1.000000000000000000 ) ) ;
#19 = CARTESIAN_POINT ( 'NONE',  ( 2.444036937190193033E-14, 0.0000000000000000000, 6.999999999999999112 ) ) ;
#20 = AXIS2_PLACEMENT_3D ( 'NONE', #76, #93, #5 ) ;
#21 = PLANE ( 'NONE',  #113 ) ;
#22 = CIRCLE ( 'NONE', #178, 1.499999999999992895 ) ;
#23 = FACE_OUTER_BOUND ( 'NONE', #209, .T. ) ;
#24 = CARTESIAN_POINT ( 'NONE',  ( 2.444036937190193033E-14, -1.149999999999999911, 6.999999999999999112 ) ) ;
#25 = DIRECTION ( 'NONE',  ( -4.275831445896958607E-31, -1.000000000000000000, -1.224646799147353207E-16 ) ) ;
#26 = LOCAL_TIME ( 10, 46, 0.0000000000000000000, #220 ) ;
#27 = APPROVAL_ROLE ( '' ) ;
#28 = VERTEX_POINT ( 'NONE', #133 ) ;
#29 = CALENDAR_DATE ( 2021, 1, 11 ) ;
#30 = DIRECTION ( 'NONE',  ( 0.0000000000000000000, 0.0000000000000000000, 1.000000000000000000 ) ) ;
#31 = PERSON_AND_ORGANIZATION_ROLE ( 'design_supplier' ) ;
#32 = CC_DESIGN_PERSON_AND_ORGANIZATION_ASSIGNMENT ( #66, #115, ( #186 ) ) ;
#33 = PERSON_AND_ORGANIZATION_ROLE ( 'creator' ) ;
#34 = AXIS2_PLACEMENT_3D ( 'NONE', #3, #74, #55 ) ;
#35 = DATE_AND_TIME ( #179, #26 ) ;
#36 = DIRECTION ( 'NONE',  ( 0.0000000000000000000, 1.000000000000000000, 0.0000000000000000000 ) ) ;
#37 = CIRCLE ( 'NONE', #50, 1.199999999999992184 ) ;
#38 = ORIENTED_EDGE ( 'NONE', *, *, #40, .T. ) ;
#39 = DIRECTION ( 'NONE',  ( 3.491481338843133355E-15, -1.224646799147353207E-16, 1.000000000000000000 ) ) ;
#40 = EDGE_CURVE ( 'NONE', #166, #166, #137, .T. ) ;
#41 = CARTESIAN_POINT ( 'NONE',  ( 1.326762908760390423E-13, -4.653657836759941941E-15, 38.00000000000000000 ) ) ;
#42 = CYLINDRICAL_SURFACE ( 'NONE', #4, 1.149999999999999245 ) ;
#43 = PERSON_AND_ORGANIZATION_ROLE ( 'design_owner' ) ;
#44 = CC_DESIGN_SECURITY_CLASSIFICATION ( #152, ( #149 ) ) ;
#45 = CALENDAR_DATE ( 2021, 1, 11 ) ;
#46 = PERSON_AND_ORGANIZATION ( #177, #108 ) ;
#47 = CARTESIAN_POINT ( 'NONE',  ( 0.0000000000000000000, 0.0000000000000000000, 0.0000000000000000000 ) ) ;
#48 = CALENDAR_DATE ( 2021, 1, 11 ) ;
#49 = SECURITY_CLASSIFICATION_LEVEL ( 'unclassified' ) ;
#50 = AXIS2_PLACEMENT_3D ( 'NONE', #41, #213, #105 ) ;
#51 = ORIENTED_EDGE ( 'NONE', *, *, #104, .F. ) ;
#52 = CARTESIAN_POINT ( 'NONE',  ( 2.444036937190193033E-14, -8.592624733039555931E-16, 6.999999999999999112 ) ) ;
#53 = EDGE_LOOP ( 'NONE', ( #222 ) ) ;
#54 = FACE_OUTER_BOUND ( 'NONE', #70, .T. ) ;
#55 = DIRECTION ( 'NONE',  ( 0.0000000000000000000, -1.000000000000000000, 0.0000000000000000000 ) ) ;
#56 = CC_DESIGN_DATE_AND_TIME_ASSIGNMENT ( #87, #101, ( #152 ) ) ;
#57 = FACE_OUTER_BOUND ( 'NONE', #207, .T. ) ;
#58 = DIRECTION ( 'NONE',  ( 3.491481338843133355E-15, -1.227517819005651059E-16, 1.000000000000000000 ) ) ;
#59 = ADVANCED_BREP_SHAPE_REPRESENTATION ( '60627', ( #127, #197, #210 ), #80 ) ;
#60 = TOROIDAL_SURFACE ( 'NONE', #81, 9.149999999999998579, 8.000000000000000000 ) ;
#61 = CC_DESIGN_APPROVAL ( #110, ( #186 ) ) ;
#62 = CARTESIAN_POINT ( 'NONE',  ( 3.261185306359183855E-14, 1.499999999999990674, 9.340405947693664501 ) ) ;
#63 = ADVANCED_FACE ( 'NONE', ( #54 ), #155, .F. ) ;
#64 = SHAPE_DEFINITION_REPRESENTATION ( #198, #59 ) ;
#65 = LOCAL_TIME ( 10, 46, 0.0000000000000000000, #132 ) ;
#66 = PERSON_AND_ORGANIZATION ( #177, #108 ) ;
#67 = CARTESIAN_POINT ( 'NONE',  ( 1.316288464743861212E-13, -4.616918432785521081E-15, 37.69999999999999574 ) ) ;
#68 = ORIENTED_EDGE ( 'NONE', *, *, #71, .T. ) ;
#69 = EDGE_LOOP ( 'NONE', ( #86 ) ) ;
#70 = EDGE_LOOP ( 'NONE', ( #51 ) ) ;
#71 = EDGE_CURVE ( 'NONE', #98, #98, #22, .T. ) ;
#72 = PRODUCT_RELATED_PRODUCT_CATEGORY ( 'detail', '', ( #9 ) ) ;
#73 = PLANE ( 'NONE',  #217 ) ;
#74 = DIRECTION ( 'NONE',  ( 3.491481338843133355E-15, -1.227517819005651059E-16, 1.000000000000000000 ) ) ;
#75 = DIRECTION ( 'NONE',  ( -4.275831445896958607E-31, -1.000000000000000000, -1.224646799147353207E-16 ) ) ;
#76 = CARTESIAN_POINT ( 'NONE',  ( 1.326762908760390423E-13, -4.653657836759941941E-15, 38.00000000000000000 ) ) ;
#77 = FACE_OUTER_BOUND ( 'NONE', #156, .T. ) ;
#78 = CARTESIAN_POINT ( 'NONE',  ( 1.326762908760390423E-13, 1.199999999999987521, 38.00000000000000000 ) ) ;
#79 = VERTEX_POINT ( 'NONE', #78 ) ;
#80 =( GEOMETRIC_REPRESENTATION_CONTEXT ( 3 ) GLOBAL_UNCERTAINTY_ASSIGNED_CONTEXT ( ( #190 ) ) GLOBAL_UNIT_ASSIGNED_CONTEXT ( ( #218, #150, #100 ) ) REPRESENTATION_CONTEXT ( 'NONE', 'WORKASPACE' ) );
#81 = AXIS2_PLACEMENT_3D ( 'NONE', #19, #58, #147 ) ;
#82 = CARTESIAN_POINT ( 'NONE',  ( 1.316288464743861212E-13, 1.499999999999988232, 37.69999999999999574 ) ) ;
#83 = PERSON_AND_ORGANIZATION ( #177, #108 ) ;
#84 = APPLICATION_PROTOCOL_DEFINITION ( 'international standard', 'config_control_design', 1994, #117 ) ;
#85 = APPROVAL_PERSON_ORGANIZATION ( #183, #161, #203 ) ;
#86 = ORIENTED_EDGE ( 'NONE', *, *, #139, .T. ) ;
#87 = DATE_AND_TIME ( #11, #12 ) ;
#88 = ADVANCED_FACE ( 'NONE', ( #205 ), #158, .F. ) ;
#89 = ORIENTED_EDGE ( 'NONE', *, *, #17, .T. ) ;
#90 = DIRECTION ( 'NONE',  ( 0.0000000000000000000, 1.000000000000000000, 0.0000000000000000000 ) ) ;
#91 = FACE_OUTER_BOUND ( 'NONE', #2, .T. ) ;
#92 = CLOSED_SHELL ( 'NONE', ( #122, #208, #63, #169, #159 ) ) ;
#93 = DIRECTION ( 'NONE',  ( -3.491481338843133355E-15, 1.224646799147353207E-16, -1.000000000000000000 ) ) ;
#94 = FACE_OUTER_BOUND ( 'NONE', #204, .T. ) ;
#95 = CARTESIAN_POINT ( 'NONE',  ( -4.928733891879003549E-31, -5.220882699138824625E-33, -1.411645491856499186E-16 ) ) ;
#96 = AXIS2_PLACEMENT_3D ( 'NONE', #7, #191, #25 ) ;
#97 = DIRECTION ( 'NONE',  ( 1.000000000000000000, 0.0000000000000000000, 0.0000000000000000000 ) ) ;
#98 = VERTEX_POINT ( 'NONE', #82 ) ;
#99 = DATE_TIME_ROLE ( 'creation_date' ) ;
#100 =( NAMED_UNIT ( * ) SI_UNIT ( $, .STERADIAN. ) SOLID_ANGLE_UNIT ( ) );
#101 = DATE_TIME_ROLE ( 'classification_date' ) ;
#102 = COORDINATED_UNIVERSAL_TIME_OFFSET ( 1, 0, .AHEAD. ) ;
#103 = APPROVAL ( #168, 'UNSPECIFIED' ) ;
#104 = EDGE_CURVE ( 'NONE', #79, #79, #37, .T. ) ;
#105 = DIRECTION ( 'NONE',  ( 0.0000000000000000000, 1.000000000000000000, 0.0000000000000000000 ) ) ;
#106 = DESIGN_CONTEXT ( 'detailed design', #141, 'design' ) ;
#107 = DIRECTION ( 'NONE',  ( 3.491481338843133355E-15, -1.227517819005651059E-16, 1.000000000000000000 ) ) ;
#108 = ORGANIZATION ( 'UNSPECIFIED', 'UNSPECIFIED', '' ) ;
#109 = FACE_OUTER_BOUND ( 'NONE', #125, .T. ) ;
#110 = APPROVAL ( #112, 'UNSPECIFIED' ) ;
#111 = DIRECTION ( 'NONE',  ( -3.491481338843133355E-15, 1.224646799147353207E-16, -1.000000000000000000 ) ) ;
#112 = APPROVAL_STATUS ( 'not_yet_approved' ) ;
#113 = AXIS2_PLACEMENT_3D ( 'NONE', #215, #39, #75 ) ;
#114 = APPROVAL_DATE_TIME ( #196, #110 ) ;
#115 = PERSON_AND_ORGANIZATION_ROLE ( 'creator' ) ;
#116 = PERSON_AND_ORGANIZATION ( #177, #108 ) ;
#117 = APPLICATION_CONTEXT ( 'configuration controlled 3d designs of mechanical parts and assemblies' ) ;
#118 = APPROVAL_STATUS ( 'not_yet_approved' ) ;
#119 = CC_DESIGN_PERSON_AND_ORGANIZATION_ASSIGNMENT ( #83, #16, ( #152 ) ) ;
#120 = ORIENTED_EDGE ( 'NONE', *, *, #40, .F. ) ;
#121 = CIRCLE ( 'NONE', #170, 1.149999999999999467 ) ;
#122 = ADVANCED_FACE ( 'NONE', ( #109, #23 ), #145, .T. ) ;
#123 = ORIENTED_EDGE ( 'NONE', *, *, #214, .T. ) ;
#124 = APPROVAL_PERSON_ORGANIZATION ( #153, #103, #171 ) ;
#125 = EDGE_LOOP ( 'NONE', ( #68 ) ) ;
#126 = DIRECTION ( 'NONE',  ( -3.491481338843133355E-15, 1.224646799147353207E-16, -1.000000000000000000 ) ) ;
#127 = MANIFOLD_SOLID_BREP ( 'Corps-Déplacer/Copier1[1]', #92 ) ;
#128 = CARTESIAN_POINT ( 'NONE',  ( -6.413731847436034514E-31, 0.0000000000000000000, -1.836965810494968570E-16 ) ) ;
#129 = VERTEX_POINT ( 'NONE', #24 ) ;
#130 = DIRECTION ( 'NONE',  ( 4.275831445896958607E-31, 1.000000000000000000, 1.224646799147353207E-16 ) ) ;
#131 = AXIS2_PLACEMENT_3D ( 'NONE', #52, #173, #138 ) ;
#132 = COORDINATED_UNIVERSAL_TIME_OFFSET ( 1, 0, .AHEAD. ) ;
#133 = CARTESIAN_POINT ( 'NONE',  ( -9.857467783758003594E-31, -1.149999999999999467, -2.823290983712997386E-16 ) ) ;
#134 = AXIS2_PLACEMENT_3D ( 'NONE', #194, #111, #130 ) ;
#135 = DATE_AND_TIME ( #29, #65 ) ;
#136 = ORIENTED_EDGE ( 'NONE', *, *, #104, .T. ) ;
#137 = CIRCLE ( 'NONE', #148, 1.499999999999990896 ) ;
#138 = DIRECTION ( 'NONE',  ( 0.0000000000000000000, -1.000000000000000000, 0.0000000000000000000 ) ) ;
#139 = EDGE_CURVE ( 'NONE', #28, #28, #121, .T. ) ;
#140 = CC_DESIGN_PERSON_AND_ORGANIZATION_ASSIGNMENT ( #200, #31, ( #149 ) ) ;
#141 = APPLICATION_CONTEXT ( 'configuration controlled 3d designs of mechanical parts and assemblies' ) ;
#142 = ORIENTED_EDGE ( 'NONE', *, *, #214, .F. ) ;
#143 = LOCAL_TIME ( 10, 46, 0.0000000000000000000, #14 ) ;
#144 = CC_DESIGN_APPROVAL ( #161, ( #152 ) ) ;
#145 = CYLINDRICAL_SURFACE ( 'NONE', #134, 1.499999999999990896 ) ;
#146 = DIRECTION ( 'NONE',  ( -4.285855558155652404E-31, -1.000000000000000000, -1.227517819005651305E-16 ) ) ;
#147 = DIRECTION ( 'NONE',  ( -4.347792104868795754E-31, -1.000000000000000000, -1.227517819005651059E-16 ) ) ;
#148 = AXIS2_PLACEMENT_3D ( 'NONE', #189, #18, #90 ) ;
#149 = PRODUCT_DEFINITION_FORMATION_WITH_SPECIFIED_SOURCE ( 'ANY', '', #9, .NOT_KNOWN. ) ;
#150 =( NAMED_UNIT ( * ) PLANE_ANGLE_UNIT ( ) SI_UNIT ( $, .RADIAN. ) );
#151 = CC_DESIGN_PERSON_AND_ORGANIZATION_ASSIGNMENT ( #219, #43, ( #9 ) ) ;
#152 = SECURITY_CLASSIFICATION ( '', '', #49 ) ;
#153 = PERSON_AND_ORGANIZATION ( #177, #108 ) ;
#154 = DIRECTION ( 'NONE',  ( 4.275831445896958607E-31, 1.000000000000000000, 1.224646799147353207E-16 ) ) ;
#155 = PLANE ( 'NONE',  #187 ) ;
#156 = EDGE_LOOP ( 'NONE', ( #38 ) ) ;
#157 = CONICAL_SURFACE ( 'NONE', #20, 1.199999999999992184, 0.7853981633974468357 ) ;
#158 = PLANE ( 'NONE',  #96 ) ;
#159 = ADVANCED_FACE ( 'NONE', ( #94 ), #73, .F. ) ;
#160 = DIRECTION ( 'NONE',  ( -4.275831445896958607E-31, -1.000000000000000000, -1.224646799147353207E-16 ) ) ;
#161 = APPROVAL ( #118, 'UNSPECIFIED' ) ;
#162 = LOCAL_TIME ( 10, 46, 0.0000000000000000000, #195 ) ;
#163 = FACE_OUTER_BOUND ( 'NONE', #221, .T. ) ;
#164 = MECHANICAL_CONTEXT ( 'NONE', #117, 'mechanical' ) ;
#165 = CARTESIAN_POINT ( 'NONE',  ( 2.444036937190193033E-14, -1.149999999999999911, 6.999999999999999112 ) ) ;
#166 = VERTEX_POINT ( 'NONE', #62 ) ;
#167 = VERTEX_POINT ( 'NONE', #165 ) ;
#168 = APPROVAL_STATUS ( 'not_yet_approved' ) ;
#169 = ADVANCED_FACE ( 'NONE', ( #163, #77 ), #60, .F. ) ;
#170 = AXIS2_PLACEMENT_3D ( 'NONE', #95, #107, #175 ) ;
#171 = APPROVAL_ROLE ( '' ) ;
#172 = EDGE_LOOP ( 'NONE', ( #142 ) ) ;
#173 = DIRECTION ( 'NONE',  ( 3.491481338843133355E-15, -1.227517819005651059E-16, 1.000000000000000000 ) ) ;
#174 = CC_DESIGN_DATE_AND_TIME_ASSIGNMENT ( #135, #99, ( #186 ) ) ;
#175 = DIRECTION ( 'NONE',  ( -4.285855558155654155E-31, -1.000000000000000000, -1.227517819005651059E-16 ) ) ;
#176 = FACE_OUTER_BOUND ( 'NONE', #172, .T. ) ;
#177 = PERSON ( 'UNSPECIFIED', 'UNSPECIFIED', 'UNSPECIFIED', ('UNSPECIFIED'), ('UNSPECIFIED'), ('UNSPECIFIED') ) ;
#178 = AXIS2_PLACEMENT_3D ( 'NONE', #67, #184, #36 ) ;
#179 = CALENDAR_DATE ( 2021, 1, 11 ) ;
#180 = ADVANCED_FACE ( 'NONE', ( #57 ), #21, .T. ) ;
#181 = APPROVAL_DATE_TIME ( #35, #103 ) ;
#182 = CIRCLE ( 'NONE', #34, 1.149999999999999023 ) ;
#183 = PERSON_AND_ORGANIZATION ( #177, #108 ) ;
#184 = DIRECTION ( 'NONE',  ( -3.491481338843133355E-15, 1.224646799147353207E-16, -1.000000000000000000 ) ) ;
#185 = CLOSED_SHELL ( 'NONE', ( #180, #223, #88 ) ) ;
#186 = PRODUCT_DEFINITION ( 'UNKNOWN', '', #149, #106 ) ;
#187 = AXIS2_PLACEMENT_3D ( 'NONE', #1, #126, #154 ) ;
#188 = EDGE_LOOP ( 'NONE', ( #136 ) ) ;
#189 = CARTESIAN_POINT ( 'NONE',  ( 3.261185306359183855E-14, -2.872890004500780940E-16, 9.340405947693664501 ) ) ;
#190 = UNCERTAINTY_MEASURE_WITH_UNIT (LENGTH_MEASURE( 1.000000000000000082E-05 ), #218, 'distance_accuracy_value', 'NONE');
#191 = DIRECTION ( 'NONE',  ( 3.491481338843133355E-15, -1.224646799147353207E-16, 1.000000000000000000 ) ) ;
#192 = DIRECTION ( 'NONE',  ( 3.491481338843133355E-15, -1.227517819005651059E-16, 1.000000000000000000 ) ) ;
#193 = DIRECTION ( 'NONE',  ( 3.491481338843133355E-15, -1.224646799147353207E-16, 1.000000000000000000 ) ) ;
#194 = CARTESIAN_POINT ( 'NONE',  ( 0.0000000000000000000, 0.0000000000000000000, 0.0000000000000000000 ) ) ;
#195 = COORDINATED_UNIVERSAL_TIME_OFFSET ( 1, 0, .AHEAD. ) ;
#196 = DATE_AND_TIME ( #45, #162 ) ;
#197 = MANIFOLD_SOLID_BREP ( 'Corps-Déplacer/Copier1[2]', #185 ) ;
#198 = PRODUCT_DEFINITION_SHAPE ( 'NONE', 'NONE',  #186 ) ;
#199 = APPLICATION_PROTOCOL_DEFINITION ( 'international standard', 'config_control_design', 1994, #141 ) ;
#200 = PERSON_AND_ORGANIZATION ( #177, #108 ) ;
#201 = ORIENTED_EDGE ( 'NONE', *, *, #17, .F. ) ;
#202 = DATE_AND_TIME ( #48, #143 ) ;
#203 = APPROVAL_ROLE ( '' ) ;
#204 = EDGE_LOOP ( 'NONE', ( #201 ) ) ;
#205 = FACE_OUTER_BOUND ( 'NONE', #53, .T. ) ;
#206 = CIRCLE ( 'NONE', #131, 1.149999999999999023 ) ;
#207 = EDGE_LOOP ( 'NONE', ( #123 ) ) ;
#208 = ADVANCED_FACE ( 'NONE', ( #91, #211 ), #157, .T. ) ;
#209 = EDGE_LOOP ( 'NONE', ( #120 ) ) ;
#210 = AXIS2_PLACEMENT_3D ( 'NONE', #47, #30, #97 ) ;
#211 = FACE_BOUND ( 'NONE', #188, .T. ) ;
#212 = CARTESIAN_POINT ( 'NONE',  ( 2.444036937190193349E-14, 1.124819836996383900E-32, 7.000000000000000000 ) ) ;
#213 = DIRECTION ( 'NONE',  ( -3.491481338843133355E-15, 1.224646799147353207E-16, -1.000000000000000000 ) ) ;
#214 = EDGE_CURVE ( 'NONE', #167, #167, #182, .T. ) ;
#215 = CARTESIAN_POINT ( 'NONE',  ( 2.444036937190193349E-14, 1.124819836996383900E-32, 7.000000000000000000 ) ) ;
#216 = CC_DESIGN_PERSON_AND_ORGANIZATION_ASSIGNMENT ( #116, #33, ( #149 ) ) ;
#217 = AXIS2_PLACEMENT_3D ( 'NONE', #212, #193, #160 ) ;
#218 =( LENGTH_UNIT ( ) NAMED_UNIT ( * ) SI_UNIT ( .MILLI., .METRE. ) );
#219 = PERSON_AND_ORGANIZATION ( #177, #108 ) ;
#220 = COORDINATED_UNIVERSAL_TIME_OFFSET ( 1, 0, .AHEAD. ) ;
#221 = EDGE_LOOP ( 'NONE', ( #89 ) ) ;
#222 = ORIENTED_EDGE ( 'NONE', *, *, #139, .F. ) ;
#223 = ADVANCED_FACE ( 'NONE', ( #6, #176 ), #42, .T. ) ;
ENDSEC;
END-ISO-10303-21;
