ISO-10303-21;
HEADER;
FILE_DESCRIPTION (( 'STEP AP203' ),
    '1' );
FILE_NAME ('6057.step',
    '2021-12-06T12:59:49',
    ( '' ),
    ( '' ),
    'SwSTEP 2.0',
    'SolidWorks 2019',
    '' );
FILE_SCHEMA (( 'CONFIG_CONTROL_DESIGN' ));
ENDSEC;

DATA;
#1 = DATE_AND_TIME ( #50, #94 ) ;
#2 = AXIS2_PLACEMENT_3D ( 'NONE', #40, #102, #152 ) ;
#3 = DIRECTION ( 'NONE',  ( 7.126385743161596583E-32, 1.000000000000000000, 2.041077998578921293E-17 ) ) ;
#4 = FACE_BOUND ( 'NONE', #162, .T. ) ;
#5 = ORIENTED_EDGE ( 'NONE', *, *, #67, .T. ) ;
#6 = LOCAL_TIME ( 13, 59, 49.00000000000000000, #91 ) ;
#7 = APPROVAL_DATE_TIME ( #75, #26 ) ;
#8 = COORDINATED_UNIVERSAL_TIME_OFFSET ( 1, 0, .AHEAD. ) ;
#9 = CIRCLE ( 'NONE', #29, 50.00000000000000000 ) ;
#10 = PERSON_AND_ORGANIZATION ( #104, #168 ) ;
#11 = CARTESIAN_POINT ( 'NONE',  ( 6.842277657836020854E-46, 50.00000000000000000, 0.0000000000000000000 ) ) ;
#12 = APPLICATION_CONTEXT ( 'configuration controlled 3d designs of mechanical parts and assemblies' ) ;
#13 = DATE_AND_TIME ( #116, #83 ) ;
#14 = CARTESIAN_POINT ( 'NONE',  ( -3.563192871580798313E-30, 2.082999698141468261E-32, -1.020538999289460751E-15 ) ) ;
#15 = SECURITY_CLASSIFICATION_LEVEL ( 'unclassified' ) ;
#16 = EDGE_LOOP ( 'NONE', ( #123 ) ) ;
#17 = PRODUCT_DEFINITION_FORMATION_WITH_SPECIFIED_SOURCE ( 'ANY', '', #34, .NOT_KNOWN. ) ;
#18 = FACE_OUTER_BOUND ( 'NONE', #95, .T. ) ;
#19 = LOCAL_TIME ( 13, 59, 49.00000000000000000, #112 ) ;
#20 = APPLICATION_PROTOCOL_DEFINITION ( 'international standard', 'config_control_design', 1994, #62 ) ;
#21 = APPROVAL_STATUS ( 'not_yet_approved' ) ;
#22 = CALENDAR_DATE ( 2021, 6, 12 ) ;
#23 = PRODUCT_DEFINITION ( 'UNKNOWN', '', #17, #135 ) ;
#24 = DATE_TIME_ROLE ( 'classification_date' ) ;
#25 = DIRECTION ( 'NONE',  ( 7.126385743161596583E-32, 1.000000000000000000, 2.041077998578921601E-17 ) ) ;
#26 = APPROVAL ( #101, 'UNSPECIFIED' ) ;
#27 = CIRCLE ( 'NONE', #69, 11.00000000000000000 ) ;
#28 = ADVANCED_BREP_SHAPE_REPRESENTATION ( '6057', ( #49, #2 ), #53 ) ;
#29 = AXIS2_PLACEMENT_3D ( 'NONE', #47, #73, #111 ) ;
#30 = FACE_OUTER_BOUND ( 'NONE', #105, .T. ) ;
#31 = PLANE ( 'NONE',  #52 ) ;
#32 = CARTESIAN_POINT ( 'NONE',  ( -7.839024317477754818E-31, 4.582599335911229299E-33, -2.245185798436813515E-16 ) ) ;
#33 = CC_DESIGN_PERSON_AND_ORGANIZATION_ASSIGNMENT ( #131, #151, ( #17 ) ) ;
#34 = PRODUCT ( '6057', '6057', '', ( #115 ) ) ;
#35 = APPROVAL_ROLE ( '' ) ;
#36 = PRODUCT_DEFINITION_SHAPE ( 'NONE', 'NONE',  #23 ) ;
#37 = APPROVAL_STATUS ( 'not_yet_approved' ) ;
#38 = CARTESIAN_POINT ( 'NONE',  ( 6.284666409917640040E-15, 10.99999999999999645, 1.800000000000000044 ) ) ;
#39 = EDGE_CURVE ( 'NONE', #63, #63, #27, .T. ) ;
#40 = CARTESIAN_POINT ( 'NONE',  ( 0.0000000000000000000, 0.0000000000000000000, 0.0000000000000000000 ) ) ;
#41 = VERTEX_POINT ( 'NONE', #92 ) ;
#42 = DIRECTION ( 'NONE',  ( 7.126385743161597678E-32, 1.000000000000000000, 2.041077998578921601E-17 ) ) ;
#43 = EDGE_LOOP ( 'NONE', ( #71 ) ) ;
#44 = ADVANCED_FACE ( 'NONE', ( #18, #100 ), #149, .T. ) ;
#45 = ORIENTED_EDGE ( 'NONE', *, *, #97, .F. ) ;
#46 = FACE_OUTER_BOUND ( 'NONE', #144, .T. ) ;
#47 = CARTESIAN_POINT ( 'NONE',  ( 6.284666409917636095E-15, -3.673940397442057033E-17, 1.799999999999998934 ) ) ;
#48 = DIRECTION ( 'NONE',  ( -3.491481338843133355E-15, 2.041077998578921601E-17, -1.000000000000000000 ) ) ;
#49 = MANIFOLD_SOLID_BREP ( 'Corps-Déplacer/Copier1', #74 ) ;
#50 = CALENDAR_DATE ( 2021, 6, 12 ) ;
#51 = AXIS2_PLACEMENT_3D ( 'NONE', #124, #84, #57 ) ;
#52 = AXIS2_PLACEMENT_3D ( 'NONE', #134, #133, #25 ) ;
#53 =( GEOMETRIC_REPRESENTATION_CONTEXT ( 3 ) GLOBAL_UNCERTAINTY_ASSIGNED_CONTEXT ( ( #99 ) ) GLOBAL_UNIT_ASSIGNED_CONTEXT ( ( #129, #117, #65 ) ) REPRESENTATION_CONTEXT ( 'NONE', 'WORKASPACE' ) );
#54 = CC_DESIGN_PERSON_AND_ORGANIZATION_ASSIGNMENT ( #61, #167, ( #23 ) ) ;
#55 = ADVANCED_FACE ( 'NONE', ( #4, #30 ), #109, .T. ) ;
#56 = CC_DESIGN_APPROVAL ( #150, ( #159 ) ) ;
#57 = DIRECTION ( 'NONE',  ( 7.126385743161597678E-32, 1.000000000000000000, 2.041077998578921601E-17 ) ) ;
#58 = CYLINDRICAL_SURFACE ( 'NONE', #106, 10.99999999999999822 ) ;
#59 = FACE_OUTER_BOUND ( 'NONE', #70, .T. ) ;
#60 = DATE_AND_TIME ( #22, #138 ) ;
#61 = PERSON_AND_ORGANIZATION ( #104, #168 ) ;
#62 = APPLICATION_CONTEXT ( 'configuration controlled 3d designs of mechanical parts and assemblies' ) ;
#63 = VERTEX_POINT ( 'NONE', #80 ) ;
#64 = CC_DESIGN_APPROVAL ( #26, ( #23 ) ) ;
#65 =( NAMED_UNIT ( * ) SI_UNIT ( $, .STERADIAN. ) SOLID_ANGLE_UNIT ( ) );
#66 = DIRECTION ( 'NONE',  ( -3.491481338843133355E-15, 2.041077998578921601E-17, -1.000000000000000000 ) ) ;
#67 = EDGE_CURVE ( 'NONE', #78, #78, #158, .T. ) ;
#68 = PERSON_AND_ORGANIZATION ( #104, #168 ) ;
#69 = AXIS2_PLACEMENT_3D ( 'NONE', #32, #48, #3 ) ;
#70 = EDGE_LOOP ( 'NONE', ( #161 ) ) ;
#71 = ORIENTED_EDGE ( 'NONE', *, *, #142, .T. ) ;
#72 = DIRECTION ( 'NONE',  ( 7.003381615953586911E-32, 1.000000000000000000, 1.971276677246372258E-17 ) ) ;
#73 = DIRECTION ( 'NONE',  ( -3.491481338843133355E-15, 2.041077998578921601E-17, -1.000000000000000000 ) ) ;
#74 = CLOSED_SHELL ( 'NONE', ( #128, #44, #55, #87 ) ) ;
#75 = DATE_AND_TIME ( #136, #6 ) ;
#76 = PERSON_AND_ORGANIZATION ( #104, #168 ) ;
#77 = COORDINATED_UNIVERSAL_TIME_OFFSET ( 1, 0, .AHEAD. ) ;
#78 = VERTEX_POINT ( 'NONE', #38 ) ;
#79 = APPROVAL_PERSON_ORGANIZATION ( #107, #26, #137 ) ;
#80 = CARTESIAN_POINT ( 'NONE',  ( 1.710569414459005214E-46, 11.00000000000000000, 0.0000000000000000000 ) ) ;
#81 = COORDINATED_UNIVERSAL_TIME_OFFSET ( 1, 0, .AHEAD. ) ;
#82 = ORIENTED_EDGE ( 'NONE', *, *, #39, .F. ) ;
#83 = LOCAL_TIME ( 13, 59, 49.00000000000000000, #77 ) ;
#84 = DIRECTION ( 'NONE',  ( -3.491481338843133355E-15, 2.041077998578921601E-17, -1.000000000000000000 ) ) ;
#85 = CC_DESIGN_PERSON_AND_ORGANIZATION_ASSIGNMENT ( #139, #113, ( #34 ) ) ;
#86 = CARTESIAN_POINT ( 'NONE',  ( 0.0000000000000000000, 0.0000000000000000000, 0.0000000000000000000 ) ) ;
#87 = ADVANCED_FACE ( 'NONE', ( #46, #59 ), #58, .F. ) ;
#88 = APPROVAL_DATE_TIME ( #127, #146 ) ;
#89 = PERSON_AND_ORGANIZATION_ROLE ( 'creator' ) ;
#90 = CC_DESIGN_SECURITY_CLASSIFICATION ( #159, ( #17 ) ) ;
#91 = COORDINATED_UNIVERSAL_TIME_OFFSET ( 1, 0, .AHEAD. ) ;
#92 = CARTESIAN_POINT ( 'NONE',  ( 6.284666409917640040E-15, 50.00000000000000000, 1.800000000000000044 ) ) ;
#93 = ORIENTED_EDGE ( 'NONE', *, *, #39, .T. ) ;
#94 = LOCAL_TIME ( 13, 59, 49.00000000000000000, #81 ) ;
#95 = EDGE_LOOP ( 'NONE', ( #160 ) ) ;
#96 = DIRECTION ( 'NONE',  ( 3.491481338843133355E-15, -2.041077998578921601E-17, 1.000000000000000000 ) ) ;
#97 = EDGE_CURVE ( 'NONE', #41, #41, #9, .T. ) ;
#98 = FACE_BOUND ( 'NONE', #165, .T. ) ;
#99 = UNCERTAINTY_MEASURE_WITH_UNIT (LENGTH_MEASURE( 1.000000000000000082E-05 ), #129, 'distance_accuracy_value', 'NONE');
#100 = FACE_OUTER_BOUND ( 'NONE', #16, .T. ) ;
#101 = APPROVAL_STATUS ( 'not_yet_approved' ) ;
#102 = DIRECTION ( 'NONE',  ( 0.0000000000000000000, 0.0000000000000000000, 1.000000000000000000 ) ) ;
#103 = PERSON_AND_ORGANIZATION ( #104, #168 ) ;
#104 = PERSON ( 'UNSPECIFIED', 'UNSPECIFIED', 'UNSPECIFIED', ('UNSPECIFIED'), ('UNSPECIFIED'), ('UNSPECIFIED') ) ;
#105 = EDGE_LOOP ( 'NONE', ( #45 ) ) ;
#106 = AXIS2_PLACEMENT_3D ( 'NONE', #86, #110, #164 ) ;
#107 = PERSON_AND_ORGANIZATION ( #104, #168 ) ;
#108 = CC_DESIGN_DATE_AND_TIME_ASSIGNMENT ( #60, #24, ( #159 ) ) ;
#109 = PLANE ( 'NONE',  #143 ) ;
#110 = DIRECTION ( 'NONE',  ( -3.491481338843133355E-15, 2.041077998578921601E-17, -1.000000000000000000 ) ) ;
#111 = DIRECTION ( 'NONE',  ( 7.703719777548943412E-32, 1.000000000000000000, 2.168404344971008868E-17 ) ) ;
#112 = COORDINATED_UNIVERSAL_TIME_OFFSET ( 1, 0, .AHEAD. ) ;
#113 = PERSON_AND_ORGANIZATION_ROLE ( 'design_owner' ) ;
#114 = APPROVAL_PERSON_ORGANIZATION ( #10, #146, #35 ) ;
#115 = MECHANICAL_CONTEXT ( 'NONE', #12, 'mechanical' ) ;
#116 = CALENDAR_DATE ( 2021, 6, 12 ) ;
#117 =( NAMED_UNIT ( * ) PLANE_ANGLE_UNIT ( ) SI_UNIT ( $, .RADIAN. ) );
#118 = DATE_TIME_ROLE ( 'creation_date' ) ;
#119 = CC_DESIGN_APPROVAL ( #146, ( #17 ) ) ;
#120 = APPROVAL_DATE_TIME ( #13, #150 ) ;
#121 = PRODUCT_RELATED_PRODUCT_CATEGORY ( 'detail', '', ( #34 ) ) ;
#122 = APPROVAL_PERSON_ORGANIZATION ( #68, #150, #130 ) ;
#123 = ORIENTED_EDGE ( 'NONE', *, *, #142, .F. ) ;
#124 = CARTESIAN_POINT ( 'NONE',  ( 0.0000000000000000000, 0.0000000000000000000, 0.0000000000000000000 ) ) ;
#125 = FACE_OUTER_BOUND ( 'NONE', #43, .T. ) ;
#126 = CC_DESIGN_DATE_AND_TIME_ASSIGNMENT ( #1, #118, ( #23 ) ) ;
#127 = DATE_AND_TIME ( #154, #19 ) ;
#128 = ADVANCED_FACE ( 'NONE', ( #125, #98 ), #31, .T. ) ;
#129 =( LENGTH_UNIT ( ) NAMED_UNIT ( * ) SI_UNIT ( .MILLI., .METRE. ) );
#130 = APPROVAL_ROLE ( '' ) ;
#131 = PERSON_AND_ORGANIZATION ( #104, #168 ) ;
#132 = CARTESIAN_POINT ( 'NONE',  ( 6.284666409917639251E-15, -3.673940397442058882E-17, 1.799999999999999822 ) ) ;
#133 = DIRECTION ( 'NONE',  ( -3.491481338843133355E-15, 2.041077998578921601E-17, -1.000000000000000000 ) ) ;
#134 = CARTESIAN_POINT ( 'NONE',  ( -1.389645219916511328E-30, 11.00000000000000000, -3.980102097228897245E-16 ) ) ;
#135 = DESIGN_CONTEXT ( 'detailed design', #62, 'design' ) ;
#136 = CALENDAR_DATE ( 2021, 6, 12 ) ;
#137 = APPROVAL_ROLE ( '' ) ;
#138 = LOCAL_TIME ( 13, 59, 49.00000000000000000, #8 ) ;
#139 = PERSON_AND_ORGANIZATION ( #104, #168 ) ;
#140 = AXIS2_PLACEMENT_3D ( 'NONE', #132, #145, #72 ) ;
#141 = AXIS2_PLACEMENT_3D ( 'NONE', #14, #66, #42 ) ;
#142 = EDGE_CURVE ( 'NONE', #153, #153, #155, .T. ) ;
#143 = AXIS2_PLACEMENT_3D ( 'NONE', #163, #96, #147 ) ;
#144 = EDGE_LOOP ( 'NONE', ( #93 ) ) ;
#145 = DIRECTION ( 'NONE',  ( -3.491481338843133355E-15, 2.041077998578921601E-17, -1.000000000000000000 ) ) ;
#146 = APPROVAL ( #21, 'UNSPECIFIED' ) ;
#147 = DIRECTION ( 'NONE',  ( -7.126385743161596583E-32, -1.000000000000000000, -2.041077998578921601E-17 ) ) ;
#148 = CC_DESIGN_PERSON_AND_ORGANIZATION_ASSIGNMENT ( #76, #157, ( #159 ) ) ;
#149 = CYLINDRICAL_SURFACE ( 'NONE', #51, 50.00000000000000000 ) ;
#150 = APPROVAL ( #37, 'UNSPECIFIED' ) ;
#151 = PERSON_AND_ORGANIZATION_ROLE ( 'design_supplier' ) ;
#152 = DIRECTION ( 'NONE',  ( 1.000000000000000000, 0.0000000000000000000, 0.0000000000000000000 ) ) ;
#153 = VERTEX_POINT ( 'NONE', #11 ) ;
#154 = CALENDAR_DATE ( 2021, 6, 12 ) ;
#155 = CIRCLE ( 'NONE', #141, 50.00000000000000000 ) ;
#156 = APPLICATION_PROTOCOL_DEFINITION ( 'international standard', 'config_control_design', 1994, #12 ) ;
#157 = PERSON_AND_ORGANIZATION_ROLE ( 'classification_officer' ) ;
#158 = CIRCLE ( 'NONE', #140, 10.99999999999999645 ) ;
#159 = SECURITY_CLASSIFICATION ( '', '', #15 ) ;
#160 = ORIENTED_EDGE ( 'NONE', *, *, #97, .T. ) ;
#161 = ORIENTED_EDGE ( 'NONE', *, *, #67, .F. ) ;
#162 = EDGE_LOOP ( 'NONE', ( #5 ) ) ;
#163 = CARTESIAN_POINT ( 'NONE',  ( 6.284666409917638462E-15, 10.99999999999999645, 1.799999999999999600 ) ) ;
#164 = DIRECTION ( 'NONE',  ( 7.126385743161596583E-32, 1.000000000000000000, 2.041077998578921601E-17 ) ) ;
#165 = EDGE_LOOP ( 'NONE', ( #82 ) ) ;
#166 = SHAPE_DEFINITION_REPRESENTATION ( #36, #28 ) ;
#167 = PERSON_AND_ORGANIZATION_ROLE ( 'creator' ) ;
#168 = ORGANIZATION ( 'UNSPECIFIED', 'UNSPECIFIED', '' ) ;
#169 = CC_DESIGN_PERSON_AND_ORGANIZATION_ASSIGNMENT ( #103, #89, ( #17 ) ) ;
ENDSEC;
END-ISO-10303-21;
