ISO-10303-21;
HEADER;
FILE_DESCRIPTION (( 'STEP AP203' ),
    '1' );
FILE_NAME ('60414.step',
    '2021-12-07T09:46:39',
    ( '' ),
    ( '' ),
    'SwSTEP 2.0',
    'SolidWorks 2019',
    '' );
FILE_SCHEMA (( 'CONFIG_CONTROL_DESIGN' ));
ENDSEC;

DATA;
#1 = CIRCLE ( 'NONE', #92, 11.00000000000000000 ) ;
#2 = CC_DESIGN_PERSON_AND_ORGANIZATION_ASSIGNMENT ( #74, #15, ( #192 ) ) ;
#3 = VERTEX_POINT ( 'NONE', #87 ) ;
#4 = SECURITY_CLASSIFICATION ( '', '', #147 ) ;
#5 = CARTESIAN_POINT ( 'NONE',  ( 3.491481338843125072E-15, 25.00000000000000000, 0.9999999999999976685 ) ) ;
#6 = ORIENTED_EDGE ( 'NONE', *, *, #24, .T. ) ;
#7 = APPLICATION_PROTOCOL_DEFINITION ( 'international standard', 'config_control_design', 1994, #118 ) ;
#8 = ORIENTED_EDGE ( 'NONE', *, *, #99, .F. ) ;
#9 = ADVANCED_FACE ( 'NONE', ( #228, #37 ), #145, .T. ) ;
#10 = APPROVAL_STATUS ( 'not_yet_approved' ) ;
#11 = EDGE_LOOP ( 'NONE', ( #114 ) ) ;
#12 = PERSON_AND_ORGANIZATION ( #231, #157 ) ;
#13 = CIRCLE ( 'NONE', #31, 25.00000000000000000 ) ;
#14 = EDGE_LOOP ( 'NONE', ( #186 ) ) ;
#15 = PERSON_AND_ORGANIZATION_ROLE ( 'creator' ) ;
#16 = EDGE_CURVE ( 'NONE', #121, #121, #191, .T. ) ;
#17 = DIRECTION ( 'NONE',  ( -3.491481338843133355E-15, 1.224646799147353207E-16, -1.000000000000000000 ) ) ;
#18 = PERSON_AND_ORGANIZATION ( #231, #157 ) ;
#19 = CARTESIAN_POINT ( 'NONE',  ( 1.047444401652869971E-16, -3.673940397441813441E-18, 0.02999999999999799008 ) ) ;
#20 = ORIENTED_EDGE ( 'NONE', *, *, #170, .T. ) ;
#21 = FACE_OUTER_BOUND ( 'NONE', #110, .T. ) ;
#22 = ADVANCED_FACE ( 'NONE', ( #185, #150 ), #171, .F. ) ;
#23 = EDGE_LOOP ( 'NONE', ( #52 ) ) ;
#24 = EDGE_CURVE ( 'NONE', #198, #198, #173, .T. ) ;
#25 = MANIFOLD_SOLID_BREP ( 'Corps-Déplacer/Copier1', #49 ) ;
#26 = DIRECTION ( 'NONE',  ( 0.0000000000000000000, 0.0000000000000000000, 1.000000000000000000 ) ) ;
#27 = APPLICATION_CONTEXT ( 'configuration controlled 3d designs of mechanical parts and assemblies' ) ;
#28 = DIRECTION ( 'NONE',  ( 4.314083075427408311E-31, 1.000000000000000000, 1.214306433183764966E-16 ) ) ;
#29 = AXIS2_PLACEMENT_3D ( 'NONE', #131, #98, #80 ) ;
#30 = CARTESIAN_POINT ( 'NONE',  ( -1.892735826383162188E-30, 11.00000000000000000, -5.421010862427524142E-16 ) ) ;
#31 = AXIS2_PLACEMENT_3D ( 'NONE', #107, #221, #28 ) ;
#32 = CC_DESIGN_PERSON_AND_ORGANIZATION_ASSIGNMENT ( #12, #90, ( #64 ) ) ;
#33 = EDGE_LOOP ( 'NONE', ( #117 ) ) ;
#34 = CALENDAR_DATE ( 2021, 7, 12 ) ;
#35 = APPROVAL_STATUS ( 'not_yet_approved' ) ;
#36 = ADVANCED_FACE ( 'NONE', ( #42, #21 ), #119, .T. ) ;
#37 = FACE_OUTER_BOUND ( 'NONE', #11, .T. ) ;
#38 = CALENDAR_DATE ( 2021, 7, 12 ) ;
#39 = FACE_OUTER_BOUND ( 'NONE', #33, .T. ) ;
#40 = DIRECTION ( 'NONE',  ( -3.491481338843133355E-15, 1.224646799147353207E-16, -1.000000000000000000 ) ) ;
#41 = DIRECTION ( 'NONE',  ( 4.202028969572151271E-31, 1.000000000000000000, 1.182766006347823109E-16 ) ) ;
#42 = FACE_OUTER_BOUND ( 'NONE', #197, .T. ) ;
#43 = CARTESIAN_POINT ( 'NONE',  ( 3.491481338843123495E-15, -1.224646799147349756E-16, 0.9999999999999972244 ) ) ;
#44 = APPROVAL_PERSON_ORGANIZATION ( #18, #208, #179 ) ;
#45 = AXIS2_PLACEMENT_3D ( 'NONE', #102, #139, #72 ) ;
#46 = VERTEX_POINT ( 'NONE', #5 ) ;
#47 = CC_DESIGN_APPROVAL ( #130, ( #192 ) ) ;
#48 = DIRECTION ( 'NONE',  ( 4.275831445896957731E-31, 1.000000000000000000, 1.224646799147353207E-16 ) ) ;
#49 = CLOSED_SHELL ( 'NONE', ( #233, #22, #9, #85, #226, #36, #57, #143 ) ) ;
#50 = DIRECTION ( 'NONE',  ( -3.491481338843133355E-15, 1.224646799147353207E-16, -1.000000000000000000 ) ) ;
#51 = APPROVAL_DATE_TIME ( #202, #188 ) ;
#52 = ORIENTED_EDGE ( 'NONE', *, *, #216, .T. ) ;
#53 = DATE_TIME_ROLE ( 'creation_date' ) ;
#54 = APPROVAL_PERSON_ORGANIZATION ( #181, #130, #242 ) ;
#55 = EDGE_LOOP ( 'NONE', ( #8 ) ) ;
#56 = CARTESIAN_POINT ( 'NONE',  ( 0.0000000000000000000, 0.0000000000000000000, 0.0000000000000000000 ) ) ;
#57 = ADVANCED_FACE ( 'NONE', ( #101, #248 ), #167, .F. ) ;
#58 = DIRECTION ( 'NONE',  ( 3.491481338843133355E-15, -1.224646799147353207E-16, 1.000000000000000000 ) ) ;
#59 = LOCAL_TIME ( 10, 46, 39.00000000000000000, #91 ) ;
#60 = AXIS2_PLACEMENT_3D ( 'NONE', #56, #227, #132 ) ;
#61 = CARTESIAN_POINT ( 'NONE',  ( 3.491481338843120339E-15, -1.224646799147348770E-16, 0.9999999999999963363 ) ) ;
#62 = CARTESIAN_POINT ( 'NONE',  ( 3.491481338843114028E-15, -1.224646799147346551E-16, 0.9999999999999945599 ) ) ;
#63 = AXIS2_PLACEMENT_3D ( 'NONE', #19, #17, #82 ) ;
#64 = PRODUCT_DEFINITION_FORMATION_WITH_SPECIFIED_SOURCE ( 'ANY', '', #66, .NOT_KNOWN. ) ;
#65 = CONICAL_SURFACE ( 'NONE', #144, 40.00000000000000000, 1.568796329461556782 ) ;
#66 = PRODUCT ( '60414', '60414', '', ( #175 ) ) ;
#67 = CC_DESIGN_APPROVAL ( #208, ( #64 ) ) ;
#68 = ORIENTED_EDGE ( 'NONE', *, *, #99, .T. ) ;
#69 = DIRECTION ( 'NONE',  ( 4.275831445896958607E-31, 1.000000000000000000, 1.224646799147353207E-16 ) ) ;
#70 = ADVANCED_BREP_SHAPE_REPRESENTATION ( '60414', ( #25, #235 ), #232 ) ;
#71 = EDGE_LOOP ( 'NONE', ( #164 ) ) ;
#72 = DIRECTION ( 'NONE',  ( 4.237045877651918877E-31, 1.000000000000000000, 1.246832498358330099E-16 ) ) ;
#73 = DATE_AND_TIME ( #38, #104 ) ;
#74 = PERSON_AND_ORGANIZATION ( #231, #157 ) ;
#75 = COORDINATED_UNIVERSAL_TIME_OFFSET ( 1, 0, .AHEAD. ) ;
#76 = DIRECTION ( 'NONE',  ( 4.275831445896958607E-31, 1.000000000000000000, 1.224646799147353207E-16 ) ) ;
#77 = AXIS2_PLACEMENT_3D ( 'NONE', #247, #211, #212 ) ;
#78 = DIRECTION ( 'NONE',  ( -3.491481338843133355E-15, 1.224646799147353207E-16, -1.000000000000000000 ) ) ;
#79 = COORDINATED_UNIVERSAL_TIME_OFFSET ( 1, 0, .AHEAD. ) ;
#80 = DIRECTION ( 'NONE',  ( 4.275831445896958607E-31, 1.000000000000000000, 1.224646799147353207E-16 ) ) ;
#81 = CARTESIAN_POINT ( 'NONE',  ( 0.0000000000000000000, 0.0000000000000000000, 0.0000000000000000000 ) ) ;
#82 = DIRECTION ( 'NONE',  ( 4.275564476539663594E-31, 1.000000000000000000, 1.225148454908620010E-16 ) ) ;
#83 = VERTEX_POINT ( 'NONE', #141 ) ;
#84 = DIRECTION ( 'NONE',  ( 3.491481338843133355E-15, -1.224646799147353207E-16, 1.000000000000000000 ) ) ;
#85 = ADVANCED_FACE ( 'NONE', ( #135, #39 ), #190, .T. ) ;
#86 = CARTESIAN_POINT ( 'NONE',  ( 3.785471652766322976E-30, 25.00000000000000000, 1.084202172485504434E-15 ) ) ;
#87 = CARTESIAN_POINT ( 'NONE',  ( 7.570943305532645426E-31, 40.00000000000000000, 2.168404344971008868E-16 ) ) ;
#88 =( LENGTH_UNIT ( ) NAMED_UNIT ( * ) SI_UNIT ( .MILLI., .METRE. ) );
#89 = ORIENTED_EDGE ( 'NONE', *, *, #219, .T. ) ;
#90 = PERSON_AND_ORGANIZATION_ROLE ( 'creator' ) ;
#91 = COORDINATED_UNIVERSAL_TIME_OFFSET ( 1, 0, .AHEAD. ) ;
#92 = AXIS2_PLACEMENT_3D ( 'NONE', #209, #40, #48 ) ;
#93 = PERSON_AND_ORGANIZATION ( #231, #157 ) ;
#94 = EDGE_LOOP ( 'NONE', ( #68 ) ) ;
#95 = SHAPE_DEFINITION_REPRESENTATION ( #106, #70 ) ;
#96 = DIRECTION ( 'NONE',  ( -3.491481338843133355E-15, 1.224646799147353207E-16, -1.000000000000000000 ) ) ;
#97 = CIRCLE ( 'NONE', #133, 25.00000000000000000 ) ;
#98 = DIRECTION ( 'NONE',  ( -3.491481338843133355E-15, 1.224646799147353207E-16, -1.000000000000000000 ) ) ;
#99 = EDGE_CURVE ( 'NONE', #124, #124, #97, .T. ) ;
#100 = ORIENTED_EDGE ( 'NONE', *, *, #170, .F. ) ;
#101 = FACE_OUTER_BOUND ( 'NONE', #182, .T. ) ;
#102 = CARTESIAN_POINT ( 'NONE',  ( 3.491481338843123495E-15, -1.224646799147349756E-16, 0.9999999999999972244 ) ) ;
#103 = PRODUCT_RELATED_PRODUCT_CATEGORY ( 'detail', '', ( #66 ) ) ;
#104 = LOCAL_TIME ( 10, 46, 39.00000000000000000, #113 ) ;
#105 = DIRECTION ( 'NONE',  ( 1.000000000000000000, 0.0000000000000000000, 0.0000000000000000000 ) ) ;
#106 = PRODUCT_DEFINITION_SHAPE ( 'NONE', 'NONE',  #192 ) ;
#107 = CARTESIAN_POINT ( 'NONE',  ( 3.386736898677820264E-15, -1.187907395172926036E-16, 0.9699999999999946443 ) ) ;
#108 = CC_DESIGN_DATE_AND_TIME_ASSIGNMENT ( #239, #223, ( #4 ) ) ;
#109 = PLANE ( 'NONE',  #200 ) ;
#110 = EDGE_LOOP ( 'NONE', ( #187 ) ) ;
#111 = UNCERTAINTY_MEASURE_WITH_UNIT (LENGTH_MEASURE( 1.000000000000000082E-05 ), #88, 'distance_accuracy_value', 'NONE');
#112 = DATE_AND_TIME ( #222, #245 ) ;
#113 = COORDINATED_UNIVERSAL_TIME_OFFSET ( 1, 0, .AHEAD. ) ;
#114 = ORIENTED_EDGE ( 'NONE', *, *, #219, .F. ) ;
#115 = CALENDAR_DATE ( 2021, 7, 12 ) ;
#116 = FACE_OUTER_BOUND ( 'NONE', #94, .T. ) ;
#117 = ORIENTED_EDGE ( 'NONE', *, *, #216, .F. ) ;
#118 = APPLICATION_CONTEXT ( 'configuration controlled 3d designs of mechanical parts and assemblies' ) ;
#119 = CYLINDRICAL_SURFACE ( 'NONE', #214, 40.00000000000000000 ) ;
#120 = EDGE_LOOP ( 'NONE', ( #159 ) ) ;
#121 = VERTEX_POINT ( 'NONE', #86 ) ;
#122 = APPLICATION_PROTOCOL_DEFINITION ( 'international standard', 'config_control_design', 1994, #27 ) ;
#123 = CARTESIAN_POINT ( 'NONE',  ( 3.939449925319452119E-30, 25.00000000000000000, 1.128303302524523329E-15 ) ) ;
#124 = VERTEX_POINT ( 'NONE', #193 ) ;
#125 = LOCAL_TIME ( 10, 46, 39.00000000000000000, #126 ) ;
#126 = COORDINATED_UNIVERSAL_TIME_OFFSET ( 1, 0, .AHEAD. ) ;
#127 = EDGE_CURVE ( 'NONE', #3, #3, #161, .T. ) ;
#128 = DIRECTION ( 'NONE',  ( 4.275831445896958607E-31, 1.000000000000000000, 1.224646799147353207E-16 ) ) ;
#129 = CALENDAR_DATE ( 2021, 7, 12 ) ;
#130 = APPROVAL ( #165, 'UNSPECIFIED' ) ;
#131 = CARTESIAN_POINT ( 'NONE',  ( -1.634623145303456997E-29, 5.733486186614835334E-31, -4.681746762092312139E-15 ) ) ;
#132 = DIRECTION ( 'NONE',  ( 4.275831445896958607E-31, 1.000000000000000000, 1.224646799147353207E-16 ) ) ;
#133 = AXIS2_PLACEMENT_3D ( 'NONE', #204, #96, #166 ) ;
#134 = DIRECTION ( 'NONE',  ( -4.275831445896958607E-31, -1.000000000000000000, -1.224646799147353207E-16 ) ) ;
#135 = FACE_OUTER_BOUND ( 'NONE', #142, .T. ) ;
#136 = FACE_BOUND ( 'NONE', #23, .T. ) ;
#137 = CIRCLE ( 'NONE', #45, 40.00000000000000000 ) ;
#138 = PERSON_AND_ORGANIZATION_ROLE ( 'design_owner' ) ;
#139 = DIRECTION ( 'NONE',  ( -3.491481338843133355E-15, 1.224646799147353207E-16, -1.000000000000000000 ) ) ;
#140 = EDGE_LOOP ( 'NONE', ( #6 ) ) ;
#141 = CARTESIAN_POINT ( 'NONE',  ( 3.491481338843140455E-15, 40.00000000000000000, 1.000000000000002220 ) ) ;
#142 = EDGE_LOOP ( 'NONE', ( #89 ) ) ;
#143 = ADVANCED_FACE ( 'NONE', ( #116, #246 ), #149, .T. ) ;
#144 = AXIS2_PLACEMENT_3D ( 'NONE', #43, #84, #153 ) ;
#145 = PLANE ( 'NONE',  #155 ) ;
#146 = EDGE_CURVE ( 'NONE', #156, #156, #1, .T. ) ;
#147 = SECURITY_CLASSIFICATION_LEVEL ( 'unclassified' ) ;
#148 = CARTESIAN_POINT ( 'NONE',  ( 3.491481338843121917E-15, 11.00000000000000000, 0.9999999999999967804 ) ) ;
#149 = CYLINDRICAL_SURFACE ( 'NONE', #60, 25.00000000000000000 ) ;
#150 = FACE_OUTER_BOUND ( 'NONE', #14, .T. ) ;
#151 = DIRECTION ( 'NONE',  ( -3.491481338843133355E-15, 1.224646799147353207E-16, -1.000000000000000000 ) ) ;
#152 = CIRCLE ( 'NONE', #205, 25.00000000000000000 ) ;
#153 = DIRECTION ( 'NONE',  ( -4.237045877651918877E-31, -1.000000000000000000, -1.246832498358330099E-16 ) ) ;
#154 = CC_DESIGN_PERSON_AND_ORGANIZATION_ASSIGNMENT ( #160, #240, ( #64 ) ) ;
#155 = AXIS2_PLACEMENT_3D ( 'NONE', #148, #58, #134 ) ;
#156 = VERTEX_POINT ( 'NONE', #30 ) ;
#157 = ORGANIZATION ( 'UNSPECIFIED', 'UNSPECIFIED', '' ) ;
#158 = VERTEX_POINT ( 'NONE', #199 ) ;
#159 = ORIENTED_EDGE ( 'NONE', *, *, #146, .T. ) ;
#160 = PERSON_AND_ORGANIZATION ( #231, #157 ) ;
#161 = CIRCLE ( 'NONE', #29, 40.00000000000000000 ) ;
#162 = APPROVAL_ROLE ( '' ) ;
#163 = ORIENTED_EDGE ( 'NONE', *, *, #16, .T. ) ;
#164 = ORIENTED_EDGE ( 'NONE', *, *, #16, .F. ) ;
#165 = APPROVAL_STATUS ( 'not_yet_approved' ) ;
#166 = DIRECTION ( 'NONE',  ( 4.275564476539663594E-31, 1.000000000000000000, 1.225148454908620010E-16 ) ) ;
#167 = CONICAL_SURFACE ( 'NONE', #63, 25.00000000000000000, 1.568796329461556782 ) ;
#168 = PERSON_AND_ORGANIZATION_ROLE ( 'classification_officer' ) ;
#169 = CARTESIAN_POINT ( 'NONE',  ( -6.904106961976074066E-30, 2.421634736491664812E-31, -1.977414825382878609E-15 ) ) ;
#170 = EDGE_CURVE ( 'NONE', #83, #83, #137, .T. ) ;
#171 = CYLINDRICAL_SURFACE ( 'NONE', #77, 11.00000000000000000 ) ;
#172 = CC_DESIGN_PERSON_AND_ORGANIZATION_ASSIGNMENT ( #234, #138, ( #66 ) ) ;
#173 = CIRCLE ( 'NONE', #215, 11.00000000000000000 ) ;
#174 = CC_DESIGN_SECURITY_CLASSIFICATION ( #4, ( #64 ) ) ;
#175 = MECHANICAL_CONTEXT ( 'NONE', #27, 'mechanical' ) ;
#176 = CARTESIAN_POINT ( 'NONE',  ( 3.491481338843125072E-15, 11.00000000000000000, 0.9999999999999976685 ) ) ;
#177 = AXIS2_PLACEMENT_3D ( 'NONE', #169, #78, #76 ) ;
#178 = CC_DESIGN_PERSON_AND_ORGANIZATION_ASSIGNMENT ( #93, #168, ( #4 ) ) ;
#179 = APPROVAL_ROLE ( '' ) ;
#180 = ORIENTED_EDGE ( 'NONE', *, *, #146, .F. ) ;
#181 = PERSON_AND_ORGANIZATION ( #231, #157 ) ;
#182 = EDGE_LOOP ( 'NONE', ( #201 ) ) ;
#183 = DESIGN_CONTEXT ( 'detailed design', #118, 'design' ) ;
#184 = EDGE_LOOP ( 'NONE', ( #180 ) ) ;
#185 = FACE_OUTER_BOUND ( 'NONE', #120, .T. ) ;
#186 = ORIENTED_EDGE ( 'NONE', *, *, #24, .F. ) ;
#187 = ORIENTED_EDGE ( 'NONE', *, *, #127, .F. ) ;
#188 = APPROVAL ( #35, 'UNSPECIFIED' ) ;
#189 = EDGE_LOOP ( 'NONE', ( #163 ) ) ;
#190 = CYLINDRICAL_SURFACE ( 'NONE', #238, 25.00000000000000000 ) ;
#191 = CIRCLE ( 'NONE', #177, 25.00000000000000000 ) ;
#192 = PRODUCT_DEFINITION ( 'UNKNOWN', '', #64, #183 ) ;
#193 = CARTESIAN_POINT ( 'NONE',  ( 1.047444401652976837E-16, 25.00000000000000000, 0.03000000000000105360 ) ) ;
#194 = LOCAL_TIME ( 10, 46, 39.00000000000000000, #75 ) ;
#195 = CC_DESIGN_DATE_AND_TIME_ASSIGNMENT ( #73, #53, ( #192 ) ) ;
#196 = CARTESIAN_POINT ( 'NONE',  ( 0.0000000000000000000, 0.0000000000000000000, 0.0000000000000000000 ) ) ;
#197 = EDGE_LOOP ( 'NONE', ( #20 ) ) ;
#198 = VERTEX_POINT ( 'NONE', #176 ) ;
#199 = CARTESIAN_POINT ( 'NONE',  ( 3.386736898677831308E-15, 25.00000000000000000, 0.9699999999999976419 ) ) ;
#200 = AXIS2_PLACEMENT_3D ( 'NONE', #123, #50, #69 ) ;
#201 = ORIENTED_EDGE ( 'NONE', *, *, #127, .T. ) ;
#202 = DATE_AND_TIME ( #115, #59 ) ;
#203 = PERSON_AND_ORGANIZATION ( #231, #157 ) ;
#204 = CARTESIAN_POINT ( 'NONE',  ( 1.047444401652869971E-16, -3.673940397441813441E-18, 0.02999999999999799008 ) ) ;
#205 = AXIS2_PLACEMENT_3D ( 'NONE', #62, #237, #249 ) ;
#206 = APPROVAL_DATE_TIME ( #112, #208 ) ;
#207 = EDGE_LOOP ( 'NONE', ( #100 ) ) ;
#208 = APPROVAL ( #10, 'UNSPECIFIED' ) ;
#209 = CARTESIAN_POINT ( 'NONE',  ( -6.596150416869815780E-30, 2.313618121009533520E-31, -1.889212565304840819E-15 ) ) ;
#210 = CC_DESIGN_APPROVAL ( #188, ( #4 ) ) ;
#211 = DIRECTION ( 'NONE',  ( -3.491481338843133355E-15, 1.224646799147353207E-16, -1.000000000000000000 ) ) ;
#212 = DIRECTION ( 'NONE',  ( 4.275831445896957731E-31, 1.000000000000000000, 1.224646799147353207E-16 ) ) ;
#213 =( NAMED_UNIT ( * ) SI_UNIT ( $, .STERADIAN. ) SOLID_ANGLE_UNIT ( ) );
#214 = AXIS2_PLACEMENT_3D ( 'NONE', #81, #243, #229 ) ;
#215 = AXIS2_PLACEMENT_3D ( 'NONE', #61, #224, #41 ) ;
#216 = EDGE_CURVE ( 'NONE', #158, #158, #13, .T. ) ;
#217 = APPROVAL_PERSON_ORGANIZATION ( #203, #188, #162 ) ;
#218 = FACE_OUTER_BOUND ( 'NONE', #207, .T. ) ;
#219 = EDGE_CURVE ( 'NONE', #46, #46, #152, .T. ) ;
#220 = FACE_OUTER_BOUND ( 'NONE', #189, .T. ) ;
#221 = DIRECTION ( 'NONE',  ( -3.491481338843133355E-15, 1.224646799147353207E-16, -1.000000000000000000 ) ) ;
#222 = CALENDAR_DATE ( 2021, 7, 12 ) ;
#223 = DATE_TIME_ROLE ( 'classification_date' ) ;
#224 = DIRECTION ( 'NONE',  ( -3.491481338843133355E-15, 1.224646799147353207E-16, -1.000000000000000000 ) ) ;
#225 = DATE_AND_TIME ( #34, #194 ) ;
#226 = ADVANCED_FACE ( 'NONE', ( #136, #218 ), #65, .F. ) ;
#227 = DIRECTION ( 'NONE',  ( -3.491481338843133355E-15, 1.224646799147353207E-16, -1.000000000000000000 ) ) ;
#228 = FACE_BOUND ( 'NONE', #140, .T. ) ;
#229 = DIRECTION ( 'NONE',  ( 4.275831445896958607E-31, 1.000000000000000000, 1.224646799147353207E-16 ) ) ;
#230 =( NAMED_UNIT ( * ) PLANE_ANGLE_UNIT ( ) SI_UNIT ( $, .RADIAN. ) );
#231 = PERSON ( 'UNSPECIFIED', 'UNSPECIFIED', 'UNSPECIFIED', ('UNSPECIFIED'), ('UNSPECIFIED'), ('UNSPECIFIED') ) ;
#232 =( GEOMETRIC_REPRESENTATION_CONTEXT ( 3 ) GLOBAL_UNCERTAINTY_ASSIGNED_CONTEXT ( ( #111 ) ) GLOBAL_UNIT_ASSIGNED_CONTEXT ( ( #88, #230, #213 ) ) REPRESENTATION_CONTEXT ( 'NONE', 'WORKASPACE' ) );
#233 = ADVANCED_FACE ( 'NONE', ( #220, #236 ), #109, .T. ) ;
#234 = PERSON_AND_ORGANIZATION ( #231, #157 ) ;
#235 = AXIS2_PLACEMENT_3D ( 'NONE', #196, #26, #105 ) ;
#236 = FACE_BOUND ( 'NONE', #184, .T. ) ;
#237 = DIRECTION ( 'NONE',  ( -3.491481338843133355E-15, 1.224646799147353207E-16, -1.000000000000000000 ) ) ;
#238 = AXIS2_PLACEMENT_3D ( 'NONE', #241, #151, #128 ) ;
#239 = DATE_AND_TIME ( #129, #125 ) ;
#240 = PERSON_AND_ORGANIZATION_ROLE ( 'design_supplier' ) ;
#241 = CARTESIAN_POINT ( 'NONE',  ( 0.0000000000000000000, 0.0000000000000000000, 0.0000000000000000000 ) ) ;
#242 = APPROVAL_ROLE ( '' ) ;
#243 = DIRECTION ( 'NONE',  ( -3.491481338843133355E-15, 1.224646799147353207E-16, -1.000000000000000000 ) ) ;
#244 = APPROVAL_DATE_TIME ( #225, #130 ) ;
#245 = LOCAL_TIME ( 10, 46, 39.00000000000000000, #79 ) ;
#246 = FACE_OUTER_BOUND ( 'NONE', #71, .T. ) ;
#247 = CARTESIAN_POINT ( 'NONE',  ( 0.0000000000000000000, 0.0000000000000000000, 0.0000000000000000000 ) ) ;
#248 = FACE_BOUND ( 'NONE', #55, .T. ) ;
#249 = DIRECTION ( 'NONE',  ( 4.314083075427408311E-31, 1.000000000000000000, 1.214306433183764966E-16 ) ) ;
ENDSEC;
END-ISO-10303-21;
