ISO-10303-21;
HEADER;
FILE_DESCRIPTION (( 'STEP AP203' ),
    '1' );
FILE_NAME ('60413.step',
    '2021-12-07T09:46:39',
    ( '' ),
    ( '' ),
    'SwSTEP 2.0',
    'SolidWorks 2019',
    '' );
FILE_SCHEMA (( 'CONFIG_CONTROL_DESIGN' ));
ENDSEC;

DATA;
#1 = EDGE_LOOP ( 'NONE', ( #138 ) ) ;
#2 = EDGE_LOOP ( 'NONE', ( #227 ) ) ;
#3 = EDGE_LOOP ( 'NONE', ( #42 ) ) ;
#4 =( GEOMETRIC_REPRESENTATION_CONTEXT ( 3 ) GLOBAL_UNCERTAINTY_ASSIGNED_CONTEXT ( ( #104 ) ) GLOBAL_UNIT_ASSIGNED_CONTEXT ( ( #199, #240, #243 ) ) REPRESENTATION_CONTEXT ( 'NONE', 'WORKASPACE' ) );
#5 = FACE_OUTER_BOUND ( 'NONE', #117, .T. ) ;
#6 = APPROVAL_ROLE ( '' ) ;
#7 = DIRECTION ( 'NONE',  ( -4.314083075427408311E-31, -1.000000000000000000, -1.214306433183764966E-16 ) ) ;
#8 = CARTESIAN_POINT ( 'NONE',  ( 8.226058691645066317E-30, 30.00000000000000000, 2.356036848924040363E-15 ) ) ;
#9 = CIRCLE ( 'NONE', #236, 11.00000000000000000 ) ;
#10 = CYLINDRICAL_SURFACE ( 'NONE', #73, 11.00000000000000000 ) ;
#11 = CC_DESIGN_DATE_AND_TIME_ASSIGNMENT ( #224, #231, ( #111 ) ) ;
#12 = CARTESIAN_POINT ( 'NONE',  ( -2.606720875221802875E-30, 9.143146035455276261E-32, -7.465945317311972060E-16 ) ) ;
#13 = FACE_OUTER_BOUND ( 'NONE', #207, .T. ) ;
#14 = ADVANCED_FACE ( 'NONE', ( #45, #121 ), #27, .T. ) ;
#15 = CALENDAR_DATE ( 2021, 7, 12 ) ;
#16 = VERTEX_POINT ( 'NONE', #221 ) ;
#17 = LOCAL_TIME ( 10, 46, 39.00000000000000000, #56 ) ;
#18 = CC_DESIGN_PERSON_AND_ORGANIZATION_ASSIGNMENT ( #68, #98, ( #160 ) ) ;
#19 = DATE_TIME_ROLE ( 'classification_date' ) ;
#20 = ORIENTED_EDGE ( 'NONE', *, *, #119, .F. ) ;
#21 = EDGE_LOOP ( 'NONE', ( #140 ) ) ;
#22 = PERSON_AND_ORGANIZATION ( #95, #158 ) ;
#23 = CARTESIAN_POINT ( 'NONE',  ( 3.491481338843120339E-15, -1.224646799147348770E-16, 0.9999999999999963363 ) ) ;
#24 = PERSON_AND_ORGANIZATION ( #95, #158 ) ;
#25 = ADVANCED_FACE ( 'NONE', ( #142, #125 ), #211, .T. ) ;
#26 = DIRECTION ( 'NONE',  ( 4.275831445896958607E-31, 1.000000000000000000, 1.224646799147353207E-16 ) ) ;
#27 = CYLINDRICAL_SURFACE ( 'NONE', #159, 30.00000000000000000 ) ;
#28 = FACE_BOUND ( 'NONE', #61, .T. ) ;
#29 = CC_DESIGN_PERSON_AND_ORGANIZATION_ASSIGNMENT ( #91, #244, ( #110 ) ) ;
#30 = AXIS2_PLACEMENT_3D ( 'NONE', #182, #146, #102 ) ;
#31 = DIRECTION ( 'NONE',  ( -3.491481338843133355E-15, 1.224646799147353207E-16, -1.000000000000000000 ) ) ;
#32 = CARTESIAN_POINT ( 'NONE',  ( 3.785471652766309138E-31, 50.00000000000000000, 1.084202172485504434E-16 ) ) ;
#33 = COORDINATED_UNIVERSAL_TIME_OFFSET ( 1, 0, .AHEAD. ) ;
#34 = VERTEX_POINT ( 'NONE', #32 ) ;
#35 = ADVANCED_FACE ( 'NONE', ( #147, #126 ), #209, .F. ) ;
#36 = CC_DESIGN_APPROVAL ( #177, ( #169 ) ) ;
#37 = EDGE_LOOP ( 'NONE', ( #134 ) ) ;
#38 = EDGE_LOOP ( 'NONE', ( #249 ) ) ;
#39 = CIRCLE ( 'NONE', #54, 50.00000000000000000 ) ;
#40 = EDGE_LOOP ( 'NONE', ( #97 ) ) ;
#41 = COORDINATED_UNIVERSAL_TIME_OFFSET ( 1, 0, .AHEAD. ) ;
#42 = ORIENTED_EDGE ( 'NONE', *, *, #191, .F. ) ;
#43 = CARTESIAN_POINT ( 'NONE',  ( 0.0000000000000000000, 0.0000000000000000000, 0.0000000000000000000 ) ) ;
#44 = CC_DESIGN_DATE_AND_TIME_ASSIGNMENT ( #124, #19, ( #169 ) ) ;
#45 = FACE_OUTER_BOUND ( 'NONE', #1, .T. ) ;
#46 = DIRECTION ( 'NONE',  ( -3.491481338843133355E-15, 1.224646799147353207E-16, -1.000000000000000000 ) ) ;
#47 = DIRECTION ( 'NONE',  ( 4.275831445896958607E-31, 1.000000000000000000, 1.224646799147352961E-16 ) ) ;
#48 = DIRECTION ( 'NONE',  ( 3.491481338843133355E-15, -1.224646799147353207E-16, 1.000000000000000000 ) ) ;
#49 = CIRCLE ( 'NONE', #86, 11.00000000000000000 ) ;
#50 = VERTEX_POINT ( 'NONE', #53 ) ;
#51 = VERTEX_POINT ( 'NONE', #201 ) ;
#52 = ADVANCED_FACE ( 'NONE', ( #194, #83 ), #103, .T. ) ;
#53 = CARTESIAN_POINT ( 'NONE',  ( 3.491481338843125072E-15, 11.00000000000000000, 0.9999999999999976685 ) ) ;
#54 = AXIS2_PLACEMENT_3D ( 'NONE', #179, #71, #215 ) ;
#55 = VERTEX_POINT ( 'NONE', #130 ) ;
#56 = COORDINATED_UNIVERSAL_TIME_OFFSET ( 1, 0, .AHEAD. ) ;
#57 = ADVANCED_FACE ( 'NONE', ( #101, #123 ), #180, .T. ) ;
#58 = APPROVAL_STATUS ( 'not_yet_approved' ) ;
#59 = EDGE_LOOP ( 'NONE', ( #157 ) ) ;
#60 = CIRCLE ( 'NONE', #242, 30.00000000000000000 ) ;
#61 = EDGE_LOOP ( 'NONE', ( #62 ) ) ;
#62 = ORIENTED_EDGE ( 'NONE', *, *, #129, .T. ) ;
#63 = CLOSED_SHELL ( 'NONE', ( #57, #155, #25, #14, #152, #52, #35, #241 ) ) ;
#64 = PERSON_AND_ORGANIZATION ( #95, #158 ) ;
#65 = DIRECTION ( 'NONE',  ( 4.277169418159986582E-31, 1.000000000000000000, 1.224244953098215506E-16 ) ) ;
#66 = CALENDAR_DATE ( 2021, 7, 12 ) ;
#67 = DIRECTION ( 'NONE',  ( 4.275831445896958607E-31, 1.000000000000000000, 1.224646799147352961E-16 ) ) ;
#68 = PERSON_AND_ORGANIZATION ( #95, #158 ) ;
#69 = CARTESIAN_POINT ( 'NONE',  ( 3.491481338843121917E-15, 11.00000000000000000, 0.9999999999999967804 ) ) ;
#70 = CIRCLE ( 'NONE', #30, 30.00000000000000000 ) ;
#71 = DIRECTION ( 'NONE',  ( -3.491481338843133355E-15, 1.224646799147353207E-16, -1.000000000000000000 ) ) ;
#72 = DIRECTION ( 'NONE',  ( -4.275831445896958607E-31, -1.000000000000000000, -1.224646799147353207E-16 ) ) ;
#73 = AXIS2_PLACEMENT_3D ( 'NONE', #161, #216, #198 ) ;
#74 = DIRECTION ( 'NONE',  ( -3.491481338843133355E-15, 1.224646799147353207E-16, -1.000000000000000000 ) ) ;
#75 = APPLICATION_CONTEXT ( 'configuration controlled 3d designs of mechanical parts and assemblies' ) ;
#76 = APPROVAL_STATUS ( 'not_yet_approved' ) ;
#77 = DIRECTION ( 'NONE',  ( 4.275831445896957731E-31, 1.000000000000000000, 1.224646799147353207E-16 ) ) ;
#78 = PERSON_AND_ORGANIZATION_ROLE ( 'creator' ) ;
#79 = ORIENTED_EDGE ( 'NONE', *, *, #237, .T. ) ;
#80 = SECURITY_CLASSIFICATION_LEVEL ( 'unclassified' ) ;
#81 = EDGE_CURVE ( 'NONE', #16, #16, #164, .T. ) ;
#82 = AXIS2_PLACEMENT_3D ( 'NONE', #183, #212, #7 ) ;
#83 = FACE_OUTER_BOUND ( 'NONE', #59, .T. ) ;
#84 = APPROVAL_STATUS ( 'not_yet_approved' ) ;
#85 = CARTESIAN_POINT ( 'NONE',  ( 1.047444401652912865E-16, -3.673940397441964434E-18, 0.02999999999999922520 ) ) ;
#86 = AXIS2_PLACEMENT_3D ( 'NONE', #23, #178, #145 ) ;
#87 = DIRECTION ( 'NONE',  ( -3.491481338843133355E-15, 1.224646799147353207E-16, -1.000000000000000000 ) ) ;
#88 = DESIGN_CONTEXT ( 'detailed design', #206, 'design' ) ;
#89 = DIRECTION ( 'NONE',  ( -3.491481338843133355E-15, 1.224646799147353207E-16, -1.000000000000000000 ) ) ;
#90 = PRODUCT_DEFINITION_SHAPE ( 'NONE', 'NONE',  #111 ) ;
#91 = PERSON_AND_ORGANIZATION ( #95, #158 ) ;
#92 = LOCAL_TIME ( 10, 46, 39.00000000000000000, #41 ) ;
#93 = VERTEX_POINT ( 'NONE', #184 ) ;
#94 = CONICAL_SURFACE ( 'NONE', #82, 50.00000000000000000, 1.569296327919894818 ) ;
#95 = PERSON ( 'UNSPECIFIED', 'UNSPECIFIED', 'UNSPECIFIED', ('UNSPECIFIED'), ('UNSPECIFIED'), ('UNSPECIFIED') ) ;
#96 = APPROVAL_DATE_TIME ( #141, #177 ) ;
#97 = ORIENTED_EDGE ( 'NONE', *, *, #237, .F. ) ;
#98 = PERSON_AND_ORGANIZATION_ROLE ( 'creator' ) ;
#99 = ORIENTED_EDGE ( 'NONE', *, *, #165, .T. ) ;
#100 = AXIS2_PLACEMENT_3D ( 'NONE', #8, #31, #26 ) ;
#101 = FACE_OUTER_BOUND ( 'NONE', #208, .T. ) ;
#102 = DIRECTION ( 'NONE',  ( 4.237045877651918877E-31, 1.000000000000000000, 1.228762462150238276E-16 ) ) ;
#103 = CYLINDRICAL_SURFACE ( 'NONE', #200, 50.00000000000000000 ) ;
#104 = UNCERTAINTY_MEASURE_WITH_UNIT (LENGTH_MEASURE( 1.000000000000000082E-05 ), #199, 'distance_accuracy_value', 'NONE');
#105 = CC_DESIGN_PERSON_AND_ORGANIZATION_ASSIGNMENT ( #64, #174, ( #169 ) ) ;
#106 = FACE_OUTER_BOUND ( 'NONE', #228, .T. ) ;
#107 = CIRCLE ( 'NONE', #181, 30.00000000000000000 ) ;
#108 = ADVANCED_BREP_SHAPE_REPRESENTATION ( '60413', ( #246, #173 ), #4 ) ;
#109 = DIRECTION ( 'NONE',  ( -3.491481338843133355E-15, 1.224646799147353207E-16, -1.000000000000000000 ) ) ;
#110 = PRODUCT ( '60413', '60413', '', ( #170 ) ) ;
#111 = PRODUCT_DEFINITION ( 'UNKNOWN', '', #160, #88 ) ;
#112 = DIRECTION ( 'NONE',  ( 4.275831445896958607E-31, 1.000000000000000000, 1.224646799147352961E-16 ) ) ;
#113 = LOCAL_TIME ( 10, 46, 39.00000000000000000, #156 ) ;
#114 = APPROVAL_DATE_TIME ( #151, #229 ) ;
#115 = CYLINDRICAL_SURFACE ( 'NONE', #230, 30.00000000000000000 ) ;
#116 = APPROVAL_PERSON_ORGANIZATION ( #233, #186, #248 ) ;
#117 = EDGE_LOOP ( 'NONE', ( #79 ) ) ;
#118 = EDGE_LOOP ( 'NONE', ( #175 ) ) ;
#119 = EDGE_CURVE ( 'NONE', #50, #50, #49, .T. ) ;
#120 = ORIENTED_EDGE ( 'NONE', *, *, #189, .T. ) ;
#121 = FACE_OUTER_BOUND ( 'NONE', #38, .T. ) ;
#122 = PERSON_AND_ORGANIZATION_ROLE ( 'design_supplier' ) ;
#123 = FACE_BOUND ( 'NONE', #40, .T. ) ;
#124 = DATE_AND_TIME ( #66, #92 ) ;
#125 = FACE_OUTER_BOUND ( 'NONE', #3, .T. ) ;
#126 = FACE_BOUND ( 'NONE', #118, .T. ) ;
#127 = FACE_OUTER_BOUND ( 'NONE', #137, .T. ) ;
#128 = CIRCLE ( 'NONE', #222, 30.00000000000000000 ) ;
#129 = EDGE_CURVE ( 'NONE', #55, #55, #70, .T. ) ;
#130 = CARTESIAN_POINT ( 'NONE',  ( 3.386736898677831703E-15, 30.00000000000000000, 0.9699999999999978639 ) ) ;
#131 = CARTESIAN_POINT ( 'NONE',  ( -1.892735826383162188E-30, 11.00000000000000000, -5.421010862427524142E-16 ) ) ;
#132 = PERSON_AND_ORGANIZATION ( #95, #158 ) ;
#133 = CALENDAR_DATE ( 2021, 7, 12 ) ;
#134 = ORIENTED_EDGE ( 'NONE', *, *, #119, .T. ) ;
#135 = EDGE_CURVE ( 'NONE', #34, #34, #39, .T. ) ;
#136 = PRODUCT_RELATED_PRODUCT_CATEGORY ( 'detail', '', ( #110 ) ) ;
#137 = EDGE_LOOP ( 'NONE', ( #190 ) ) ;
#138 = ORIENTED_EDGE ( 'NONE', *, *, #191, .T. ) ;
#139 = LOCAL_TIME ( 10, 46, 39.00000000000000000, #33 ) ;
#140 = ORIENTED_EDGE ( 'NONE', *, *, #81, .T. ) ;
#141 = DATE_AND_TIME ( #143, #218 ) ;
#142 = FACE_BOUND ( 'NONE', #37, .T. ) ;
#143 = CALENDAR_DATE ( 2021, 7, 12 ) ;
#144 = CARTESIAN_POINT ( 'NONE',  ( 0.0000000000000000000, 0.0000000000000000000, 0.0000000000000000000 ) ) ;
#145 = DIRECTION ( 'NONE',  ( 4.202028969572151271E-31, 1.000000000000000000, 1.182766006347823109E-16 ) ) ;
#146 = DIRECTION ( 'NONE',  ( -3.491481338843133355E-15, 1.224646799147353207E-16, -1.000000000000000000 ) ) ;
#147 = FACE_OUTER_BOUND ( 'NONE', #214, .T. ) ;
#148 = CARTESIAN_POINT ( 'NONE',  ( 0.0000000000000000000, 0.0000000000000000000, 0.0000000000000000000 ) ) ;
#149 = CC_DESIGN_APPROVAL ( #186, ( #160 ) ) ;
#150 = CARTESIAN_POINT ( 'NONE',  ( 0.0000000000000000000, 0.0000000000000000000, 0.0000000000000000000 ) ) ;
#151 = DATE_AND_TIME ( #15, #139 ) ;
#152 = ADVANCED_FACE ( 'NONE', ( #28, #127 ), #94, .F. ) ;
#153 = AXIS2_PLACEMENT_3D ( 'NONE', #196, #87, #166 ) ;
#154 = VERTEX_POINT ( 'NONE', #167 ) ;
#155 = ADVANCED_FACE ( 'NONE', ( #5, #106 ), #10, .F. ) ;
#156 = COORDINATED_UNIVERSAL_TIME_OFFSET ( 1, 0, .AHEAD. ) ;
#157 = ORIENTED_EDGE ( 'NONE', *, *, #135, .F. ) ;
#158 = ORGANIZATION ( 'UNSPECIFIED', 'UNSPECIFIED', '' ) ;
#159 = AXIS2_PLACEMENT_3D ( 'NONE', #144, #46, #47 ) ;
#160 = PRODUCT_DEFINITION_FORMATION_WITH_SPECIFIED_SOURCE ( 'ANY', '', #110, .NOT_KNOWN. ) ;
#161 = CARTESIAN_POINT ( 'NONE',  ( 0.0000000000000000000, 0.0000000000000000000, 0.0000000000000000000 ) ) ;
#162 = COORDINATED_UNIVERSAL_TIME_OFFSET ( 1, 0, .AHEAD. ) ;
#163 = CARTESIAN_POINT ( 'NONE',  ( 3.491481338843112845E-15, -1.224646799147346058E-16, 0.9999999999999941158 ) ) ;
#164 = CIRCLE ( 'NONE', #153, 50.00000000000000000 ) ;
#165 = EDGE_CURVE ( 'NONE', #93, #93, #128, .T. ) ;
#166 = DIRECTION ( 'NONE',  ( 4.314083075427408311E-31, 1.000000000000000000, 1.214306433183764966E-16 ) ) ;
#167 = CARTESIAN_POINT ( 'NONE',  ( 3.491481338843125861E-15, 30.00000000000000000, 0.9999999999999978906 ) ) ;
#168 = VERTEX_POINT ( 'NONE', #131 ) ;
#169 = SECURITY_CLASSIFICATION ( '', '', #80 ) ;
#170 = MECHANICAL_CONTEXT ( 'NONE', #75, 'mechanical' ) ;
#171 = APPLICATION_PROTOCOL_DEFINITION ( 'international standard', 'config_control_design', 1994, #75 ) ;
#172 = APPLICATION_PROTOCOL_DEFINITION ( 'international standard', 'config_control_design', 1994, #206 ) ;
#173 = AXIS2_PLACEMENT_3D ( 'NONE', #148, #185, #245 ) ;
#174 = PERSON_AND_ORGANIZATION_ROLE ( 'classification_officer' ) ;
#175 = ORIENTED_EDGE ( 'NONE', *, *, #165, .F. ) ;
#176 = APPROVAL_DATE_TIME ( #210, #186 ) ;
#177 = APPROVAL ( #84, 'UNSPECIFIED' ) ;
#178 = DIRECTION ( 'NONE',  ( -3.491481338843133355E-15, 1.224646799147353207E-16, -1.000000000000000000 ) ) ;
#179 = CARTESIAN_POINT ( 'NONE',  ( -2.100061006420816256E-29, 7.366022441292991366E-31, -6.014813778488215642E-15 ) ) ;
#180 = PLANE ( 'NONE',  #100 ) ;
#181 = AXIS2_PLACEMENT_3D ( 'NONE', #163, #232, #235 ) ;
#182 = CARTESIAN_POINT ( 'NONE',  ( 3.386736898677819081E-15, -1.187907395172925543E-16, 0.9699999999999942002 ) ) ;
#183 = CARTESIAN_POINT ( 'NONE',  ( 3.491481338843129017E-15, -1.224646799147351728E-16, 0.9999999999999986677 ) ) ;
#184 = CARTESIAN_POINT ( 'NONE',  ( 1.047444401653041178E-16, 30.00000000000000000, 0.03000000000000289935 ) ) ;
#185 = DIRECTION ( 'NONE',  ( 0.0000000000000000000, 0.0000000000000000000, 1.000000000000000000 ) ) ;
#186 = APPROVAL ( #58, 'UNSPECIFIED' ) ;
#187 = DIRECTION ( 'NONE',  ( -3.491481338843133355E-15, 1.224646799147353207E-16, -1.000000000000000000 ) ) ;
#188 = APPROVAL_PERSON_ORGANIZATION ( #22, #177, #6 ) ;
#189 = EDGE_CURVE ( 'NONE', #51, #51, #60, .T. ) ;
#190 = ORIENTED_EDGE ( 'NONE', *, *, #81, .F. ) ;
#191 = EDGE_CURVE ( 'NONE', #154, #154, #107, .T. ) ;
#192 = DIRECTION ( 'NONE',  ( 4.275831445896958607E-31, 1.000000000000000000, 1.224646799147353207E-16 ) ) ;
#193 = SHAPE_DEFINITION_REPRESENTATION ( #90, #108 ) ;
#194 = FACE_OUTER_BOUND ( 'NONE', #21, .T. ) ;
#195 = DIRECTION ( 'NONE',  ( -3.491481338843133355E-15, 1.224646799147353207E-16, -1.000000000000000000 ) ) ;
#196 = CARTESIAN_POINT ( 'NONE',  ( 3.491481338843129017E-15, -1.224646799147351728E-16, 0.9999999999999986677 ) ) ;
#197 = CC_DESIGN_APPROVAL ( #229, ( #111 ) ) ;
#198 = DIRECTION ( 'NONE',  ( 4.275831445896957731E-31, 1.000000000000000000, 1.224646799147353207E-16 ) ) ;
#199 =( LENGTH_UNIT ( ) NAMED_UNIT ( * ) SI_UNIT ( .MILLI., .METRE. ) );
#200 = AXIS2_PLACEMENT_3D ( 'NONE', #43, #238, #192 ) ;
#201 = CARTESIAN_POINT ( 'NONE',  ( 1.022077346246907365E-29, 30.00000000000000000, 2.927345865710861972E-15 ) ) ;
#202 = FACE_OUTER_BOUND ( 'NONE', #2, .T. ) ;
#203 = AXIS2_PLACEMENT_3D ( 'NONE', #239, #195, #65 ) ;
#204 = ORIENTED_EDGE ( 'NONE', *, *, #135, .T. ) ;
#205 = CC_DESIGN_SECURITY_CLASSIFICATION ( #169, ( #160 ) ) ;
#206 = APPLICATION_CONTEXT ( 'configuration controlled 3d designs of mechanical parts and assemblies' ) ;
#207 = EDGE_LOOP ( 'NONE', ( #99 ) ) ;
#208 = EDGE_LOOP ( 'NONE', ( #120 ) ) ;
#209 = CONICAL_SURFACE ( 'NONE', #203, 30.00000000000000000, 1.569296327919894818 ) ;
#210 = DATE_AND_TIME ( #213, #113 ) ;
#211 = PLANE ( 'NONE',  #217 ) ;
#212 = DIRECTION ( 'NONE',  ( 3.491481338843133355E-15, -1.224646799147353207E-16, 1.000000000000000000 ) ) ;
#213 = CALENDAR_DATE ( 2021, 7, 12 ) ;
#214 = EDGE_LOOP ( 'NONE', ( #204 ) ) ;
#215 = DIRECTION ( 'NONE',  ( 4.275831445896958607E-31, 1.000000000000000000, 1.224646799147353207E-16 ) ) ;
#216 = DIRECTION ( 'NONE',  ( -3.491481338843133355E-15, 1.224646799147353207E-16, -1.000000000000000000 ) ) ;
#217 = AXIS2_PLACEMENT_3D ( 'NONE', #69, #48, #72 ) ;
#218 = LOCAL_TIME ( 10, 46, 39.00000000000000000, #162 ) ;
#219 = APPROVAL_ROLE ( '' ) ;
#220 = CC_DESIGN_PERSON_AND_ORGANIZATION_ASSIGNMENT ( #247, #78, ( #111 ) ) ;
#221 = CARTESIAN_POINT ( 'NONE',  ( 3.491481338843150316E-15, 50.00000000000000000, 1.000000000000004885 ) ) ;
#222 = AXIS2_PLACEMENT_3D ( 'NONE', #85, #109, #234 ) ;
#223 = CARTESIAN_POINT ( 'NONE',  ( -6.596150416869815780E-30, 2.313618121009533520E-31, -1.889212565304840819E-15 ) ) ;
#224 = DATE_AND_TIME ( #133, #17 ) ;
#225 = APPROVAL_PERSON_ORGANIZATION ( #132, #229, #219 ) ;
#226 = CC_DESIGN_PERSON_AND_ORGANIZATION_ASSIGNMENT ( #24, #122, ( #160 ) ) ;
#227 = ORIENTED_EDGE ( 'NONE', *, *, #189, .F. ) ;
#228 = EDGE_LOOP ( 'NONE', ( #20 ) ) ;
#229 = APPROVAL ( #76, 'UNSPECIFIED' ) ;
#230 = AXIS2_PLACEMENT_3D ( 'NONE', #150, #74, #112 ) ;
#231 = DATE_TIME_ROLE ( 'creation_date' ) ;
#232 = DIRECTION ( 'NONE',  ( -3.491481338843133355E-15, 1.224646799147353207E-16, -1.000000000000000000 ) ) ;
#233 = PERSON_AND_ORGANIZATION ( #95, #158 ) ;
#234 = DIRECTION ( 'NONE',  ( 4.277169418159986582E-31, 1.000000000000000000, 1.224244953098215506E-16 ) ) ;
#235 = DIRECTION ( 'NONE',  ( 4.365441207277734308E-31, 1.000000000000000000, 1.228762462150238276E-16 ) ) ;
#236 = AXIS2_PLACEMENT_3D ( 'NONE', #223, #187, #77 ) ;
#237 = EDGE_CURVE ( 'NONE', #168, #168, #9, .T. ) ;
#238 = DIRECTION ( 'NONE',  ( -3.491481338843133355E-15, 1.224646799147353207E-16, -1.000000000000000000 ) ) ;
#239 = CARTESIAN_POINT ( 'NONE',  ( 1.047444401652912865E-16, -3.673940397441964434E-18, 0.02999999999999922520 ) ) ;
#240 =( NAMED_UNIT ( * ) PLANE_ANGLE_UNIT ( ) SI_UNIT ( $, .RADIAN. ) );
#241 = ADVANCED_FACE ( 'NONE', ( #13, #202 ), #115, .T. ) ;
#242 = AXIS2_PLACEMENT_3D ( 'NONE', #12, #89, #67 ) ;
#243 =( NAMED_UNIT ( * ) SI_UNIT ( $, .STERADIAN. ) SOLID_ANGLE_UNIT ( ) );
#244 = PERSON_AND_ORGANIZATION_ROLE ( 'design_owner' ) ;
#245 = DIRECTION ( 'NONE',  ( 1.000000000000000000, 0.0000000000000000000, 0.0000000000000000000 ) ) ;
#246 = MANIFOLD_SOLID_BREP ( 'Corps-Déplacer/Copier1', #63 ) ;
#247 = PERSON_AND_ORGANIZATION ( #95, #158 ) ;
#248 = APPROVAL_ROLE ( '' ) ;
#249 = ORIENTED_EDGE ( 'NONE', *, *, #129, .F. ) ;
ENDSEC;
END-ISO-10303-21;
